Srebrna Krila

Evo Noći Evo Ludila(uvod)

by: faLLen_angel

Pronađi akord!

Ne znaš kako odsvirati neki od akorda pjesmi Evo Noći Evo Ludila(uvod)? Upiši akord u tražilicu i saznaj!

Traženi akord će se prikazati ovdje

Od istog izvođača

Pregledano 2869 puta
Pregledano 16382 puta
Pregledano 9356 puta
Pregledano 16109 puta
Pregledano 290 puta
Trebaš ritam za ovu pjesmu? Pronađi ga ovdje
Akordi/Tabovi:
Evo noci evo ludila                               


                                                       
E||-------------6----8--6--|-------------6----8--6--|
B||----------8-------------|----------6-------------|
G||----8--8----------------|----7--7----------------|
D||------------------------|------------------------|
A||------------------------|------------------------|
E||------------------------|------------------------|

                                                                     
E||---------------------------|---------------------|
B||---9----9----9--8--6-----8-|---------------------|
G||----------------------8----|----8--8-------------|
D||---------------------------|---------------------|
A||---------------------------|---------------------|
E||---------------------------|---------------------|
Komentari
Još nema komentara