Đorđe Balašević

Bozo Zvani Pub (uvod)

by: faLLen_angel

Pronađi akord!

Ne znaš kako odsvirati neki od akorda pjesmi Bozo Zvani Pub (uvod)? Upiši akord u tražilicu i saznaj!

Traženi akord će se prikazati ovdje

Od istog izvođača

Pregledano 2890 puta
Pregledano 6781 puta
Pregledano 11811 puta
Pregledano 18643 puta
Pregledano 5198 puta
Trebaš ritam za ovu pjesmu? Pronađi ga ovdje
Akordi/Tabovi:
Bozo zvani pub

E||--15~--15--14--12-------------------------|
B||-------------------14-15h16h17------------|
G||-------------------------------18-16-14---|
D||------------------------------------------|
A||------------------------------------------|
E||------------------------------------------|


                                                                             
E||------------------------------------------|
B||--------------10h12--12--12-10----10--12--|
G||-----14----11------------------11---------|
D||--16---14---------------------------------|
A||------------------------------------------|
E||------------------------------------------|
Komentari
Još nema komentara