Riblja Čorba

Ne Veruj Ženi Koja Pusi Drinu Bez Filtera(tema)

by: faLLen_angel

Pronađi akord!

Ne znaš kako odsvirati neki od akorda pjesmi Ne Veruj Ženi Koja Pusi Drinu Bez Filtera(tema)? Upiši akord u tražilicu i saznaj!

Traženi akord će se prikazati ovdje

Od istog izvođača

Pregledano 2380 puta
Pregledano 7358 puta
Pregledano 16387 puta
Pregledano 2962 puta
Pregledano 7767 puta
Trebaš ritam za ovu pjesmu? Pronađi ga ovdje
Akordi/Tabovi:
Ne veruj zeni koja pusi                                   



     B                    Bdim  F#            B                                                         
E||--------7-----7-----|---------------------|--------------|
B||-----------------9--|---------------------|--------------|
G||--8-7-8-------------|-------------------4-|---------5r7--|
D||--------------------|--9b10--9----6-4-6---|--------------|
A||--------------------|---------------------|--------------|
E||--------------------|---------------------|--------------|


    Bdim    F#           B                                       
E||---------------------|-------------------||
B||---------------------|-------------------||
G||----4----------------|--4----------------||
D||-----------------4-6-|-------------------||
A||---------------------|-------------------||
E||---------------------|-------------------||
Komentari
Još nema komentara