Riblja Čorba

Jedan Čovek(uvod)

by: faLLen_angel

Pronađi akord!

Ne znaš kako odsvirati neki od akorda pjesmi Jedan Čovek(uvod)? Upiši akord u tražilicu i saznaj!

Traženi akord će se prikazati ovdje

Od istog izvođača

Pregledano 15339 puta
Pregledano 50580 puta
Pregledano 6816 puta
Pregledano 10023 puta
Pregledano 3011 puta
Trebaš ritam za ovu pjesmu? Pronađi ga ovdje
Jedan covek

Akordi/Tabovi:
                                                       
E||---------------------|-----------------------------|
B||-----------------8---|---------8--11--10-----------|
G||-------------------8-|------8---------------10-----|
D||---------------------|--10-------------------------|
A||---------------------|-----------------------------|
E||---------------------|-----------------------------|


                                                         
E||-------------------------|-------------------------|
B||--9--------8-------------|--------8--11--10--------|
G||------10-------10-8---7--|------8--------------10--|
D||-------------------------|--10---------------------|
A||-------------------------|-------------------------|
E||-------------------------|-------------------------|


                                                       
E||-----------------------|---------------------------|
B||--9--------8-------8---|---------8--11--10---------|
G||-----10--------------8-|------8---------------10---|
D||-----------------------|--10-----------------------|
A||-----------------------|---------------------------|
E||-----------------------|---------------------------|


                                                         
E||--------------------------|------------------------|
B||--9--------8--------------|--------8--11--10-------|
G||------10--------10-8---7--|------8-------------10--|
D||--------------------------|--10--------------------|
A||--------------------------|------------------------|
E||--------------------------|------------------------|


                       
E||----------------------||
B||--9--------8----------||
G||-----10---------------||
D||----------------------||
A||----------------------||
E||----------------------||
Komentari
Još nema komentara