Đorđe Balašević

D-mol (solo)

by: faLLen_angel

Pronađi akord!

Ne znaš kako odsvirati neki od akorda pjesmi D-mol (solo)? Upiši akord u tražilicu i saznaj!

Traženi akord će se prikazati ovdje

Od istog izvođača

Pregledano 2606 puta
Pregledano 341 puta
Pregledano 8249 puta
Pregledano 6375 puta
Pregledano 2911 puta
Trebaš ritam za ovu pjesmu? Pronađi ga ovdje
Akordi/Tabovi:
D-moll                                     
                                                                   


                                                       
E||-------------------------|--------10--13--12--------------------|
B||-------------------------|----10--------------------------------|
G||--------------------9h10-|--------------------------------------|
D||----------------12-------|--------------------------------------|
A||------------12-----------|--------------------------------------|
E||-------------------------|--------------------------------------|


                                                             
E||----12h13-12--10--------------|---------------------------------|
B||------------------14------10--|----11--10-----------------------|
G||------------------------------|------------12--12------10-9-----|
D||------------------------------|---------------------------------|
A||------------------------------|---------------------------------|
E||------------------------------|---------------------------------|


                                                                               
E||---------------------|---------------------|--------------------|
B||---------------------|---------------------|----------------10--|
G||--10----9--10-9------|------9--10------9---|----9--10--12-------|
D||----------------12---|--12---------12------|--------------------|
A||---------------------|---------------------|--------------------|
E||---------------------|---------------------|--------------------|


                                                                       
E||------------------------|---------------------------------------|
B||--11--10----13-11-10----|-------------------10--11--10--13--11--|
G||------------------------|--------9--10--12----------------------|
D||------------------------|----12---------------------------------|
A||------------------------|---------------------------------------|
E||------------------------|---------------------------------------|


                                                                       
E||---------------------------------|------------------------------|
B||--10----11-10-------10-----------|------------------------------|
G||-----12-------12-10----12-10-9---|---9-10-9---------------------|
D||---------------------------------|----------12--11----------11--|
A||---------------------------------|--------------------10/12-----|
E||---------------------------------|------------------------------|


                                                               
E||--------------------------------|-------------------------------|
B||-----11--10---------------------|--------------------------10---|
G||--9----------12--12--10-9-10----|------9--10-9------------------|
D||--------------------------------|--------------12----10/12------|
A||--------------------------------|-------------------------------|
E||--------------------------------|-------------------------------|


                                                           
E||---------------------------|------------------|-----------------|
B||--13--11--11-10------------|------------------|-----------------|
G||----------------12---12-10-|--9--9------------|-----------------|
D||---------------------------|-------12-11---7--|--7h8-7----------|
A||---------------------------|------------------|----------10--8--|
E||---------------------------|------------------|-----------------|


                                                                         
E||---------------------|--------------------|--------------------||
B||---------------------|--------------------|--------------------||
G||---------------------|--------------------|--------------------||
D||----7--6--7--10---8--|----7------7--------|--------------------||
A||---------------------|-------10--------7--|--8--7--------------||
E||---------------------|--------------------|--------10--9--10---||
Komentari

saldin kaže:

po meni nije tezak

20-04-2009 01:21

irich kaže:

a sta znaci ovo 7h8
sta oznacava slovo h

19-08-2009 20:02

Đekica kaže:

hammer on

20-08-2009 13:14

Tukki kaže:

Nije težak,sa nekoliko ponavljanja lako se savlada

05-06-2010 01:38

Space kaže:

super samo ima malo viska nota barem ja tako mislim

07-10-2010 23:24

B4K1 kaže:

Pa nisu iste note u videu kao ove sto su napisane gore.. :P

12-12-2012 17:56