Leb I Sol

Talasna duzina(intro)

by: faLLen_angel

Pronađi akord!

Ne znaš kako odsvirati neki od akorda pjesmi Talasna duzina(intro)? Upiši akord u tražilicu i saznaj!

Traženi akord će se prikazati ovdje

Od istog izvođača

Pregledano 29241 puta
Pregledano 3658 puta
Pregledano 2994 puta
Pregledano 2517 puta
Pregledano 2886 puta
Trebaš ritam za ovu pjesmu? Pronađi ga ovdje
Akordi/Tabovi:
Leb i sol
           -Talasna duzina(intro)-                               



                                                                           
E||-----------------------|------------8b10r8-----|
B||----------6-6b8--6-----|--8r-------------------|
G||------5-7--------------|-----5-5--5------------|
D||-----------------------|-----------------------|
A||-----------------------|-----------------------|
E||-----------------------|-----------------------|


                                                               
E||-----------------------|-----------------------|
B||----------6-6b8-6------|--8r-------------------|
G||------5-7--------------|-----5-5--5-7r5--5-----|
D||-----------------------|-----------------------|
A||-----------------------|-----------------------|
E||-----------------------|-----------------------|
Komentari
Još nema komentara