Leb I Sol

Famm fatale(uvod)

by: fallen_angel

Pronađi akord!

Ne znaš kako odsvirati neki od akorda pjesmi Famm fatale(uvod)? Upiši akord u tražilicu i saznaj!

Traženi akord će se prikazati ovdje

Od istog izvođača

Pregledano 7618 puta
Pregledano 2499 puta
Pregledano 39609 puta
Pregledano 16389 puta
Pregledano 10993 puta
Trebaš ritam za ovu pjesmu? Pronađi ga ovdje
Akordi/Tabovi:
Famm Fatale                                   


                                                                 
E||------------7----------|---------------------|----------------------|
B||---------------9-------|---------------------|-----------------9----|
G||-----------------------|--9------------------|----------------------|
D||-----------------------|---------------------|----------------------|
A||-----------------------|---------------------|----------------------|
E||-----------------------|---------------------|----------------------|


                                                                           
E||----9-11-12-------11-9-|-----------------------|--------------------|
B||-----------------------|-------------12--------|--------------------|
G||-----------------------|--11------------13-----|--------------11-9--|
D||-----------------------|-----------------------|--14----------------|
A||-----------------------|-----------------------|--------------------|
E||-----------------------|-----------------------|--------------------|


                                                                           
E||-------------------9-|---11-12------11----9---|--------------------||
B||----------------9----|------------------------|--------------------||
G||----11---------------|------------------------|--11-------9--------||
D||---------------------|------------------------|--------------------||
A||---------------------|------------------------|--------------------||
E||---------------------|------------------------|--------------------||
Komentari
Još nema komentara