Đorđe Balašević

Dodjoska(solo)

by: faLLen_angel

Pronađi akord!

Ne znaš kako odsvirati neki od akorda pjesmi Dodjoska(solo)? Upiši akord u tražilicu i saznaj!

Traženi akord će se prikazati ovdje

Od istog izvođača

Pregledano 4676 puta
Pregledano 12367 puta
Pregledano 5781 puta
Pregledano 14047 puta
Pregledano 62627 puta
Trebaš ritam za ovu pjesmu? Pronađi ga ovdje
Akordi/Tabovi:
Dodjoska                                     
                   



   Dm                      A                  A                                                           
E||-----------------------|------------------|----------------------|
B||--11--10--8------------|------------------|---------------8--10--|
G||-------------10--9--7--|--9---------------|------------9---------|
D||-----------------------|------------------|--7---9-11------------|
A||-----------------------|------------------|----------------------|
E||-----------------------|------------------|----------------------|


   Dm               F                          C                                                           
E||----------------|--------------------------|---------------------|
B||----------------|----------10--11--13---10-|---------------------|
G||--10------------|--10--12------------------|--12-----------------|
D||----------------|--------------------------|---------------------|
A||----------------|--------------------------|---------------------|
E||----------------|--------------------------|---------------------|


   C                          F             A                                                                   
E||-------------------------|--------------|-----------------12--13-|
B||--13--15--13-------------|--------------|-------12-14-15---------|
G||--------------15--14--12-|--14----------|--14--------------------|
D||-------------------------|--------------|------------------------|
A||-------------------------|--------------|------------------------|
E||-------------------------|--------------|------------------------|


   Bb                 C                          F                                                         
E||------------------|--------------------------|-------------------|
B||--15--------------|--13--15--13--------------|-------------------|
G||------------------|--------------15--14------|--14---------------|
D||------------------|----------------------17--|-------------------|
A||------------------|--------------------------|-------------------|
E||------------------|--------------------------|-------------------|


   Gm                         Dm               A                                                               
E||--------------------------|----------------|---------------------|
B||-------------15-----------|----------------|---------------------|
G||--12--14--15------14---12-|----------------|----------12---------|
D||--------------------------|--15------------|--14--15--------14---|
A||--------------------------|----------------|---------------------|
E||--------------------------|----------------|---------------------|


   Dm                     Gm                         Dm                                                               
E||----------------------|--------------------------|---------------|
B||----------------------|-------------15-----------|---------------|
G||------12--14----------|--12--14--15------14---12-|---------------|
D||--15------------15----|--------------------------|--15-----------|
A||----------------------|--------------------------|---------------|
E||----------------------|--------------------------|---------------|


   A                      Dm                                     
E||----------------------|----------------||
B||----------------------|----------------||
G||----------12----------|----------------||
D||--14--15--------14----|--12------------||
A||----------------------|----------------||
E||----------------------|----------------||
Komentari
Još nema komentara