Petar Grašo

Volim i Postojim

by: Rudi

Pronađi akord!

Ne znaš kako odsvirati neki od akorda pjesmi Volim i Postojim? Upiši akord u tražilicu i saznaj!

Traženi akord će se prikazati ovdje

Od istog izvođača

Pregledano 6156 puta
Pregledano 5216 puta
Pregledano 18560 puta
Pregledano 10655 puta
Pregledano 2436 puta
Trebaš ritam za ovu pjesmu? Pronađi ga ovdje
VOLIM I POSTOJIM
Petar Grašo
Akordi/Tabovi:
e---14-14-14--14-12-11----11-------11-----14-14-14-
h----------------------14----14-12-----------------
g--------------------------------------------------
d--------------------------------------------------
a--------------------------------------------------
e--------------------------------------------------


e--14-12-11----11-------------------12/14-14-14----
h-----------14----14-12-12/--------12--------------
g--------------------------------------------------
d--------------------------------------------------
a--------------------------------------------------
e--------------------------------------------------

e--14-12-11-----11--------b10---12-11--------------
h------------14-----14-12--------------12-14-12-12-
g--------------------------------------------------
d--------------------------------------------------
a--------------------------------------------------
e--------------------------------------------------

A           D     E         A
HEJ LJUBAVI,ZAGRLI ME,  ZAGRLI
           D     E           A
NEK' NITKO NAS NIKADA NE RAZDVOJI
                     D    E         A
SVAKI DAN,SVAKI SAT,NOVI LJUDI NOVI RAT,
              D            E      A
JEDNOGA DANA ZBOG NJIH ĆE ZEMLJA STAT


HEJ LJUBAVI,SAD SMO LJUDI ODRASLI,
I GRUDI MI BUDE TVOJI POGLEDI
POTRESI ,NEMIRI,IZA UGLA VREBAJU
A TAKVI K'O TI NAM UVIJEK TREBAJU

     A               D       E         A
     ZATO ŠTO GODINE PROLAZE DVADESETI VIJEK
              D       E       A
     ŽIVIM PO SVOME I LJUBIM ZAUVIJEK
            D        E                A
     GODINE PROLAZE NEMAM NIŠTA S TIM,
     D       E    A
     VOLIM I POSTOJIM.

rudimarakovic@yahoo.com
Komentari

futa kaže:

Umjesto A-dura na "rat" probaj Fis-mol isto tako na rijec "vrebaju" i opet na "s tim" u refrenu... Stavi Fis-mol pa mi reci kako ti zvuci!?;) A-dur je greska!

10-01-2009 21:10

Bistre kaže:

istina.. bolje zvuci sa fis-molom :thumbsup

10-01-2009 23:46

memi419 kaže:

Ritam? :S

05-02-2014 18:27