System Of A Down

Dreaming

by: Guitarmen

Pronađi akord!

Ne znaš kako odsvirati neki od akorda pjesmi Dreaming? Upiši akord u tražilicu i saznaj!

Traženi akord će se prikazati ovdje

Od istog izvođača

Pregledano 3344 puta
Pregledano 1042 puta
Pregledano 1073 puta
Pregledano 1171 puta
Pregledano 5833 puta
Trebaš ritam za ovu pjesmu? Pronađi ga ovdje
Akordi/Tabovi:
--------------------------------------|
--------------------------------------|
--------------------------------------|   Very fast picking, play 15 times,
-14-0-0-0-13-0-0-0-12-0-0-0-11-0-0-0--|   then the 16th time play:
--------------------------------------|
--------------------------------------|

---------------------------------|
---------------------------------|
---------------------------------|
-8-8-8-8-/12--8-8-8-8-/12--------|
-8-8-8-8-/12--8-8-8-8-/12--------|
-8-8-8-8-/12--8-8-8-8-/12--------|

VERSE
--------------------------------------|
--------------------------------------|
--------------------------------------|
-14-0-0-0-13-0-0-0-12-0-0-0-11-0-0-0--|  x 8
-14-0-0-0-13-0-0-0-12-0-0-0-11-0-0-0--|
-14-0-0-0-13-0-0-0-12-0-0-0-11-0-0-0--|

---------------------------------|
---------------------------------|
---------------------------------|
-8-8-8-8-/12--8-8-8-8-/12--------|
-8-8-8-8-/12--8-8-8-8-/12--------|
-8-8-8-8-/12--8-8-8-8-/12--------|

--------------------------------------|
--------------------------------------|
--------------------------------------|
-14-0-0-0-13-0-0-0-12-0-0-0-11-0-0-0--|  x 7
-14-0-0-0-13-0-0-0-12-0-0-0-11-0-0-0--|
-14-0-0-0-13-0-0-0-12-0-0-0-11-0-0-0--|

---------------------------------|
---------------------------------|
---------------------------------|
-8-8-8-8-/12---/12--/12-/12-/12--|
-8-8-8-8-/12---/12--/12-/12-/12--|
-8-8-8-8-/12---/12--/12-/12-/12--|

CHORUS
-----------------------------|
-----------------------------|
-------------8---------------|
-0-----5-----------4---5--7--|
-0-----5-----6-----4---5--7--|
-0-----5-----------4---5--7--|

-------------------------------|
-------------------------------|
-------------8-----11---12--14-|
-0-----5-----------------------|
-0-----5-----6------9---10--12-|
-0-----5-----------------------|

BRIDGE
------------------------------------------------|
------------------------------------------------|
-------------------------------------7--7-7-7-7-|
-5--7-7-7-5--1--3-3-3-1--3--5-5-5-3-------------|
-5--5-5-5-5--1--1-1-1-1--3--3-3-3-3--5--5-5-5-5-|
-5--5-5-5-5--1--1-1-1-1--3--3-3-3-3-------------|

Play main riff of bridge once, then play along with bridge (listen to song for rythym):

-----------------------|
-----------13-15-16-18-|
--12-14-15-------------|
-----------------------|
-----------------------|
-----------------------|

----------------|
-16-16-16-15-13-|
----------------|
----------------|
----------------|
----------------|

-------------------------|
-15-15-15-15-15-15-15-15-|
-------------------------|
-------------------------|
-------------------------|
-------------------------|

-18-18-18-18-18-18-18-18-16-16-16-16-16-16-16-16-|
-------------------------------------------------|
-------------------------------------------------| x3
-------------------------------------------------|
-------------------------------------------------|
-------------------------------------------------|
                                                       } Play this bit twice
-16-16-16-16-16-16-16-16-15-15-15-15-15-15-15-15-|
-------------------------------------------------|
-------------------------------------------------|
-------------------------------------------------|
-------------------------------------------------|
-------------------------------------------------|


ORDER
INTRO
VERSE
CHORUS
VERSE
CHORUS
BRIDGE
VERSE
CHORUS
FASTER PICKING CHORUS x3
SECOND PART OF VERSE (slower beat)
Komentari
Još nema komentara