Joan Jett

I Hate Myself For Loving You

by:

Pronađi akord!

Ne znaš kako odsvirati neki od akorda pjesmi I Hate Myself For Loving You? Upiši akord u tražilicu i saznaj!

Traženi akord će se prikazati ovdje

Od istog izvođača

Pregledano 6737 puta
Pregledano 1677 puta
Pregledano 1793 puta
Trebaš ritam za ovu pjesmu? Pronađi ga ovdje
Akordi/Tabovi:
Intro
E||----------------------------------------------------|
B||----------------------------------------------------|
G||--10-10-10-13-10--8-8-8-10-10-8-8-8-8-8-8-8---10-10-|
D||--10-10-10-13-10--8-8-8-10-10-8-8-8-8-8-8-8---10-10-|
A||--8--8--8--11-8---6-6-6-8--8--6-6-6-0-6-6-6---8--8--| x2
E||------------------------------6-6-6-0-6-6-----------|

Verse 1 & 2
E||--------------------------------------------|
B||--------------------------------------------|
G||--10~----10-10------------------------10----|
D||--10~----10-10-8~----8-8-10~----10-10-10----|
A||--8~-----8--8--8~----8-8-10~----10-10-8-----| x2
E||---------------6~----6-6-8~-----8--8--8-----|


"I think of you every night and day..."                                   
E||----------------------------------|
B||----------------------------------|
G||----------------------------------|
D||--6--6-6-6-8-8-8-8-6-6-6-6-8-8-10-|
A||--6--6-6-6-8-8-8-8-6-6-6-6-8-8-10-|
E||--4--4-4-4-6-6-6-6-4-4-4-4-6-6-8--|
P.M..............................

Chorus
E||-----------------------------------------|
B||-----------------------------------------|
G||--10----10-10----------------------10----|
D||--10----10-10-8----8-8-10----10-10-10----|
A||--8-----8--8--8----8-8-10----10-10-8-----|
E||--------------6----6-6-8-----8--8--8-----|

repeat intro
repeat verse


That's pretty much it just listen to the song.
Komentari
Još nema komentara