Joan Jett

I Love Rock N Roll

by:

Pronađi akord!

Ne znaš kako odsvirati neki od akorda pjesmi I Love Rock N Roll? Upiši akord u tražilicu i saznaj!

Traženi akord će se prikazati ovdje

Od istog izvođača

Pregledano 1793 puta
Pregledano 1678 puta
Pregledano 6738 puta
Trebaš ritam za ovu pjesmu? Pronađi ga ovdje
Akordi/Tabovi:
1|-------------------------------------------------------|
2|-------------------------------------------------------|
3|------------------------------2--2-----4--4------------|
4|---2--2---%---2--2------------2--2--%--4--4------------|
5|---2--2-------2--2------------0--0-----2--2------------|
6|---0--0-------0--0---3b(1/4)------------------3b(1/4)--|

1|----------------------------------------------------|
2|----------------------------------------------------|
3|------------------------------2--2-----4--2---------|
4|---2--2---%---2--2------------2--2--%--4--2--2--2---|
5|---2--2-------2--2------------0--0-----2--0--2--2---|
6|---0--0-------0--0---3b(1/4)-----------------0--0---|

           rake
1|----------___----------------------------------------------|
2|---------|--x|--15b--r15--12-------------------------------|
3|----------x------------------14-12~~/----------------------|
4|--9--9~---------2---0--------------------------------------|
5|--7--7~-------------------2--0-----------------------------|
6|--0--0~-------------------------0--------------------------|
I saw him.....
     rake
1|----------------------------------guitar-1----------------|
2|-------------------------------x--15b--r15--12------------|
3|-----------------------------x------------------14--12~~/-|
4|--2--2---------------9--9----------2----0-----------------|
5|--2--2---------------7--7-------guitar-2-----2---0--------|
6|--0--0---------------0--0----------------------------0----|
        dancing....             

     rake
1|----------------------------------guitar-1----------------|
2|-------------------------------x--15b--r15--12------------|
3|-----------------------------x------------------14--12~~/-|
4|--2--2---------------9--9----------2----0-----------------|
5|--2--2---------------7--7-------guitar-2-----2---0--------|
6|--0--0---------------0--0----------------------------0----|      

1|---------------------|
2|---------------------|
3|--4--4---2--2--------|
4|--4--4---2--2--2-----|
5|--2--2---0--0--2-----|
6|---------------0-----|
                ^ ring for 8 beats
Chorus :
1|-------------------------------------------------------|
2|-------------------------------------------------------|
3|------------------------------2--2-----4--4------------|
4|---2--2---%---2--2------------2--2--%--4--4------------|
5|---2--2-------2--2------------0--0-----2--2------------|
6|---0--0-------0--0---3b(1/4)------------------3b(1/4)--|
I love rock and roll.        So put another...

1|----------------------------------------------------|
2|----------------------------------------------------|
3|------------------------------2--2-----4--2---------|
4|---2--2---%---2--2------------2--2--%--4--2-%%-2--2-|
5|---2--2-------2--2------------0--0-----2--0----2--2-|
6|---0--0-------0--0---3b(1/4)-------------------0--0-|
         Ow!
  rake  
1|---------------------------------|     
2|----x--15b--r15--12--------------|     
3|--x------------------14--12~~/---|   
4|---------------------------------| 
5|---------------------------------| 
6|---------------------------------|
   
Solo :                             
1|---------------------------------/----------------------\-|
2|----------------------------------------------------------|
3|---------------------------------7~~~~~~~~~~~~~~~~~~~~~~--|
4|---------------------------------6~~~~~~~~~~~~~~~~~~~~~~--|
5|----------------------------------------------------------|
6|--0--x--x--2b(1/2)-r2--2b(1/2)----------------------------|

   full
1|-------------------12------------------------------^------|
2|-----------------------------12------------12--12b^-------|
3|---------9--11b~~------11b~-------11-------9---9---h11----|
4|-/9--11-------------------------------9h11----------------|
5|----------------------------------------------------------|
6|----------------------------------------------------------|

1|----------------------------------------------------------|
2|----------------------------------------------------------|
3|-------9---9-9-9-9/-8-8-8-8/-6-6-6-6/-4-4-4-4/-2-2-2-2/---|
4|--9h11----------------------------------------------------|
5|----------------------------------------------------------|
6|----------------------------------------------------------|

1|----------------------------------------------------------|
2|----------------------------------------------------------|
3|-1-1-1-1/-------------------------------------------------|
4|----------------------------------------------------------|
5|----------------------------------------------------------|
6|----------------------------------------------------------|

(2:35)
1|---------|----------|----------|----------|
2|---------|----------|----------|----------|
3|--9------|-----9----|------9---|----9.----|
4|---------|----------|----------|----------|
5|--7------|-----7----|------7---|----7.----|
6|---------|----------|----------|----------|
Komentari
Još nema komentara