Thompson

Duh Ratnika /Verzija 2/

by: Johnny Bravo

Pronađi akord!

Ne znaš kako odsvirati neki od akorda pjesmi Duh Ratnika /Verzija 2/? Upiši akord u tražilicu i saznaj!

Traženi akord će se prikazati ovdje

Od istog izvođača

Pregledano 92041 puta
Pregledano 21178 puta
Pregledano 92547 puta
Pregledano 29436 puta
Pregledano 17728 puta
Trebaš ritam za ovu pjesmu? Pronađi ga ovdje
Akordi/Tabovi:
Duh ratnika - Thompson

UVOD : Hm

Hm            A           Hm
Odakle si i s koje fronte stižeš,
D            A       Hm
ej, ratniče, umornog koraka,
Hm         A           Hm
odavno se ovdje boj ne bije,
D         A         Hm
zašto kao duh ovuda lutaš?

Em           Hm
«Ja sam duša hrvatskih ratnika,
Em               Hm
domovinu tražim i stijeg što se vije,
Em                Hm
i mojom je krvlju ona natopljena,
D           A            Hm
a duša nema mira - traži je»

Solo

E---------------------------------------------------
B-------------------15-17--15-14-----15-17-14-------
G-16-14-16-14-16-16--------------17-----------14-16-
D---------------------------------------------------
A---------------------------------------------------
E---------------------------------------------------

Pa ovo je zemlja tvoja, zar ne vidis ti
domovina koju smo svi snili
za njenu slobodu krv si svoju dao
i tisucljetni san je stvarnost postao

Ne poznajem je takvu i tuzna mi se cini
u snovima je mojim ponosna i lijepa
a gdje su joj junaci i sinovi vrli
a gdje vrednote za koje smo mrili

Solo

Hej, ratnice, te Hrvatske nema
cim propupa snasle je nevolje
podigle se na nju sile tame
udarile na krunu i prijestolje

»Uvijek je bilo i uvijek će biti,
onih što će dušu vragu prodati,
a vi zato bdijte jer morate bditi,
D        A          G
Domovini ponos vratiti!»

Solo

E------------------------
B------------------------
G------------------------
D--5-5-5-4-4-4-2-0-2-0---
A----------------------3-
E------------------------

Riff 1

E-----
B-----
G-----
D-----
A-2-4-
E-----


D           A      Hm
Sve bi' dao da je vidim,
D         A      G   A   Hm    Riff 1
ponosnu i lijepu k'o u snovima,                x2
D           A      Hm
sve bi' dao da je vidim,
D          A     
i opet bi' spreman stao,
G         A     Hm   Riff 1
svoj bi' život dao!

Solo

E-------------------------------------------
B----------------------3-5-3-2----5-7-8-8-7-
G-11-2----4-2-4-2-4--4---------4------------
D-------------------------------------------
A-------------------------------------------
E-------------------------------------------

E------------------------------------
B---------------3-5-3-2----3-5-2-----
G-4-2-4-2-4--4---------4---------2-4-
D------------------------------------
A------------------------------------
E------------------------------------


E--------------------------------------------------
B---------------3-5-3-2----5-7-8-8-7-8-7-5-7-5-3-2-
G-4-2-4-2-4--4---------4---------------------------
D--------------------------------------------------
A--------------------------------------------------
E--------------------------------------------------


E--------------------------------------------------
B---------------3-5-3-2----3-5-2----------------2--
G-4-2-4-2-4--4---------4---------2-11--2-4--2-4----
D--------------------------------------------------
A--------------------------------------------------
E--------------------------------------------------

E--------------------------------------------------
B-3-2--------------2-3-2-----3-2-3-2-3-2-3-5-3-2-3-
G-----4-11-2-4-2-4-------4-------------------------
D--------------------------------------------------
A--------------------------------------------------
E--------------------------------------------------

E-------------------------
B-2-3-5-5-3-5-3-2-3-2-----
G---------------------4-2-
D-------------------------
A-------------------------
E-------------------------


E---------------------------------------------------
B-------------------15-17--15-14-----15-17-14-------
G-16-14-16-14-16-16--------------17-----------14-16-
D---------------------------------------------------
A---------------------------------------------------
E---------------------------------------------------

E---------------------
B---------------------
G---------------------
D---------------------
A-------5---------4-5-
E-0-7-0---0-7-0-7-----

Ref.  X2

ja sam dusa hrvatskih ratnika,
domovinu trazim i stijeg sto se vije,
i mojom je krvlju ona natopljena,
a dusa nema mira trazi je
Komentari

Pendes kaže:

Ej kako izgleda ona nota Hm

04-10-2007 04:02

Johnny Bravo kaže:

Mislis akord Hm ili?

ovo je akord:

E--2------
B--3------
G--4------
D--4------
A--2------
E---------

04-10-2007 14:46

alen993 kaže:

Hm
e-1
B-2
G-3
D-3
A-1
E-1

27-09-2009 13:47

iron_maiden kaže:

E--2------
B--3------
G--4------
D--4------
A--2------
E---------



to je Hm

02-12-2009 18:12