Pips, Chips & Videoclips

Bomba

by: Winterspawn

Pronađi akord!

Ne znaš kako odsvirati neki od akorda pjesmi Bomba? Upiši akord u tražilicu i saznaj!

Traženi akord će se prikazati ovdje

Od istog izvođača

Pregledano 1261 puta
Pregledano 23140 puta
Pregledano 13954 puta
Pregledano 2608 puta
Pregledano 6964 puta
Trebaš ritam za ovu pjesmu? Pronađi ga ovdje
Akordi/Tabovi:
Intro:
e------------------------------------
H--1---1---0---0---3---3---1---1-----
G----0---0---0---0---0---0---0---0---
D------------------------------------
A------------------------------------
E------------------------------------

e------------------------------------
H--5---5---6---6---------------------
G----0---0---0---0--0-2-4-5----------
D------------------------------------
A------------------------------------
E------------------------------------

Bomba kuca tika tak
Odlitit ce te svi u zrak. HAHAHAH

Ritam gitara: Za solo
e------------------------------------
H------------------------------------
G------------------------------------
D------------------------------------
A--2-3-3-3-2-3-3-3-2-3-3-3-----------
E------------------------------------

Lead gitara: Solo
e------------------------------------------------------------------------
H-------------------12-13-13-13-13-13-13-13-----------|------------------
G--------------------------------------------14--12^--|}3x---------------
D-----------------------------------------------------|------------------
A-------/12--------------------------------------------------------------
E------------------------------------------------------------------------

e------------------------------------
H--12-13----13-----13-----13---------
G--------14----14^----14^----14^^----
D------------------------------------
A------------------------------------
E------------------------------------

1. strofa
C5                G5
Ja sam uvijek pristojan
F5             C5
Ja sam uvijek uredan
C5          G5
Svi me obozavaju
G5            C5
Svi me uvazavaju


Predrefren:(Riatm gitara svira akorde a lead gitara svira tonove)
C5     G5    F5    C5   
Zvali su me streberu
C5     G5          C5
Najbolji si u razredu

e-----5--3-3-------------1--5--3-3---------------
H-1-----------6--10--8---------------------------
G-----------------------------------0--2--4-5----
D------------------------------------------------
A------------------------------------------------
E------------------------------------------------

Refren:(Fill se svira samo prvi put)
F5
Ja sam uvijek
C5
Ja sam Uvijek
G5
Ja sam uvijek
C5            fILL
Bio najbolji!

Fill:
e---------------------------------
H---------------------------------
G--5-7-8--------------------------
D---------------------------------
A---------------------------------
E---------------------------------

2. strofa
U skoli su me volili
U kuci su me mazili
Svi su samnom trcali
Svi su mene pazili

Predrefren:
Refren:

Ritam za solo2:
C5

Solo2:
e----------------------------------------------------------------------
H-12-13-13-13-13-13-13-13----------------------------------------------
G--------------------------14--12^-------------------------------------
D---------------------------------------10-10-10--9-10--15-14-10-------
A---------------------------------------10-10-10-----------------------
E---------------------------------------8--8--8------------------------

e------------------------------------------------------------------------
H------------------------------------------------------------------------
G------------------------------------------------------------------------
D-----------------------------------------------10h10-12-10-12-10-12-10--
A-----------------------------------------------10h10-12-10-12-10-12-10--
E--*8h10p8h10p7h9p6h8p5h7p4h6p3h5p2h4p1h3p1-----0-h8--10-8--10-8--10-8---

e----------------------------------------------------------------------
H-9h10p9h10p9h10p10h11p10h11p10h11p11h12p11h12p11h12p10h11p10h11p10h11-
G----------------------------------------------------------------------
D----------------------------------------------------------------------
A----------------------------------------------------------------------
E----------------------------------------------------------------------

e---------------------------------------------------------------------------
H-1-3-5-6--8-6--5----------------------------0-12-14-11-13-10-12-9-11-11-11^
G---------------------------------------------------------------------------
D---------------------------------------------------------------------------
A-------------------------------3\-----3\-----------------------------------
E----------------------------8/----8/---------------------------------------

e----------------------------------------------------------------------
H-12-13-13-13-13-13-13-13----------------------------------------------
G--------------------------14--12^-------------------------------------
D---------------------------------------10-10-10--9-10--15-14-10-------
A---------------------------------------10-10-10-----------------------
E---------------------------------------8--8--8------------------------

e---------------------------
H---------------------------
G---------------------------
D--10h10-12-10-12-10-12-10--
A--10h10-12-10-12-10-12-10--
E--0-h8--10-8--10-8--10-8---

1. strofa:
Refren:

Outro solo:
e--------------------------------------------------------------
H--------------------------------------------------------------
G---------------------------------------------------------------
D-------------------------------------------------------------
A--0H3-3-3-3-3-0H3-5-7-5--7-5-5--7-5-7-5-8-8-8-10-8--5--3------
E--------------------------------------------------------------

Intro:
Bomba kuca tika tak
Odletjeli ste svi u zrak.

Legenda:
/- slide gore
\- slide dolje
^^- bend up cijeli stepen
^- bend up pola stepen
*- promjena efekta
h- hammer on
p- pull off
Komentari
Još nema komentara