Pips, Chips & Videoclips

Poštar Lakog Sna

by: Winterspawn

Pronađi akord!

Ne znaš kako odsvirati neki od akorda pjesmi Poštar Lakog Sna? Upiši akord u tražilicu i saznaj!

Traženi akord će se prikazati ovdje

Od istog izvođača

Pregledano 12584 puta
Pregledano 4175 puta
Pregledano 1579 puta
Pregledano 2606 puta
Pregledano 2658 puta
Trebaš ritam za ovu pjesmu? Pronađi ga ovdje
Akordi/Tabovi:
picking:
b-|-8-----|---------|-----------|-------|-
G-|---7-4-|-7-5-4-0-|-0-2-2-2-2-|-0---0-|-
D-|-------|---------|-----------|---4---|-

b-|-----|---------|-----------|-----|---------|-
G-|-7-4-|-7-5-4-0-|-0-2-2-2-2-|-0---|-2-2-2-2-|-
D-|-----|---------|-----------|---4-|---------|-

b-|-----|---------|-------||
G-|-0---|-2-2-2-2-|-0---0-||
D-|---4-|---------|---4---||


G                C    D       // umjesto C ide Csus2 x35533
On je cuvar vremena           //           ili C9    x32033
Jahac mokrih valova           // uglavnom D nota mora biti u igri
Kao postar lakog sna
On u snove dosurfa

Kada oci zaklopis
Ti se njemu pomolis
Da ti fura andjele
Srebrne
Kroz sve tvoje mocvare

      Sada znas da je fajrunt
      Mjesec je plavi grejpfrut
      Zibam te ko malu bebu
      Samo tebi svira bend na nebu


Samo klekni ti na pod
Ljubi zemlju gledaj svod
Jer svakom da po zasluzi
Da ti nista ne fali

Ja sam vlasnik cirkusa
U kojem sjedim samo ja
I samo katkad mahnem mu iz satora
Da mi snove pokrpa
Taj postar lakog ...
Komentari
Još nema komentara