Hladno Pivo

Kaže stari šta nam fali

by:

Pronađi akord!

Ne znaš kako odsvirati neki od akorda pjesmi Kaže stari šta nam fali? Upiši akord u tražilicu i saznaj!

Traženi akord će se prikazati ovdje

Od istog izvođača

Pregledano 17565 puta
Pregledano 8292 puta
Pregledano 5417 puta
Pregledano 22120 puta
Pregledano 6382 puta
Trebaš ritam za ovu pjesmu? Pronađi ga ovdje
Akordi/Tabovi:
uvod:
E|-------------------------------
H|-------------------------------
G|-------------------------------
D|-------------------------------
A|----2^-2^-2^-2^-2^-2^-2^-------
E|-------------------------------

H5
kaze stari sto nam fali
nismo zedni nismo gladni
zedan znam da nije
od kad ne radi samo pije
E5
stan je dobio od firme
one bivse domovine
A|----2^-2^-2^-2^------
tu je stao nije krao
nije htio, nije znao

E|-----------------|--------------|---------------
H|-----------------|--------------|---------------
G|-----------------|--------------|---------------
D|--4--4--4--4--2--|--4--2----2---|--4--4--4--4---
A|--2--2--2--2--4--|--------4-----|--2--2--2--2---
E|-----------------|--------------|---------------

D5
posten bez ambicija
                  H5
luzerska tradicija
posten bez ambicija
je moja definicija

              D5           A5
sto ucinio si ti od zivota mog
          H5
od zivota mog

kaze stari sto vam fali
'su bar neki ideali
ili neko da vas tlaci
da niste samo potrosaci

ja ne kuzim kaj on brije
nisam roden tol'ko prije
izbjegavam tenzije
zbog njegove mi penzije

posten bez ambicija
luzerska tradicija
posten bez ambicija
je moja definicija

zasto dao si mi ti samo praznu bol
Komentari
Još nema komentara