Darko Rundek

Sanjam

by:

Pronađi akord!

Ne znaš kako odsvirati neki od akorda pjesmi Sanjam? Upiši akord u tražilicu i saznaj!

Traženi akord će se prikazati ovdje

Od istog izvođača

Pregledano 24747 puta
Pregledano 9589 puta
Pregledano 9258 puta
Pregledano 5757 puta
Pregledano 3142 puta
Trebaš ritam za ovu pjesmu? Pronađi ga ovdje
Akordi/Tabovi:
Tema: (sa sitnim varijacijama kroz cijelu stvar)
   Am                        Em
E|---5---5---5---5-7-7h8-----------------------------|
B|-----------------------8~----8---8---8~--7---------|
G|*------------------------------------------9----9-*|
D|*-------------------------------------------------*|
A|-0---0---0---0-------------------------------------|
E|---------------------------0---0---0----------0----|

   Am                             Em
E|---8---8----8---8-10-10/12--------------------------------|
B|--10--10---10--10-12-12/13-12~----12---12---12~-10-8------|
G|*--------------------------12~----12---12---12~-11-9---9-*|
D|*--------------------------------------------------------*|
A|-0---0---0---0--------------------------------------------|
E|--------------------------------0----0----0----------0----|


Am
Sjedim sam u zagrljaju sile,
Em
a krila su mi spremna za let.
Am
Sa druge strane, nikada i nigdje,
Em
jedno svjetlo poziva me.

  Am                        Em
A zemlja je ispod nogu tako njezna,
Am                    Em
gleda me i ceka da se predam.

Am
Sto mi to ne da, sto mi to ne da,
Em
Ne da mi da krenem na put.
Am
Sto mi to ne da, sto mi to ne da,
Em
i tjera me da ostanem tu.

       Am      Em
I opet sanjam, sanjam ...
       Am      Em
I opet sanjam, sanjam ...

Am
Hajde sjeti se djecaka koji maglu pije,
      Em
Da se skrije od sebe jer nema sa kim,
       Em/A
Ne zna kako da gleda u ponor i vatru,
  Em
I kako da slusa taj ogromni zvuk ...

       Am    Em
Sto se valja
              Am    Em
I nada je sve manja             // 2. put => I sve je tajna ...

I opet sanja, sanja ...
I opet sanja, sanja ...
Komentari
Još nema komentara