Leb I Sol

Kao Kakao

by:

Pronađi akord!

Ne znaš kako odsvirati neki od akorda pjesmi Kao Kakao? Upiši akord u tražilicu i saznaj!

Traženi akord će se prikazati ovdje

Od istog izvođača

Pregledano 3427 puta
Pregledano 39829 puta
Pregledano 3671 puta
Pregledano 6969 puta
Pregledano 2083 puta
Trebaš ritam za ovu pjesmu? Pronađi ga ovdje
Akordi/Tabovi:
e|-------------------------
H|-------------------------
G|----------------------2-- 
D|--------------2-0-----2--
A|------------2-----4-2----
E|--0-2-3-2-3-0------------

e|----------------
H|----------------
G|-------------2--
D|-------------2--
A|----------------
E|--0-2-3-2-3-----

   A
e|--------------------------------------
H|---2--2--------3--3---5--5-----3-5-3--
G|--2-2---------2-2----2-2------2-2-2-3-
D|-2---2-------2---2--2---2-2--2--------
A|--------------------------------------
E|--------------------------------------
    Ja sam kao frajer

   A
e|--------------------------------------
H|---2--2--------3--3---5--5-----3-5-3--
G|--2-2---------2-2----2-2------2-2-2-3-
D|-2---2-------2---2--2---2-2--2--------
A|--------------------------------------
E|--------------------------------------
     Ti si kao dama

   A
e|--------------------------------------
H|---2--2--------3--3---5--5-----3-5-3--
G|--2-2---------2-2----2-2------2-2-2-3-
D|-2---2-------2---2--2---2-2--2--------
A|--------------------------------------
E|--------------------------------------
     Mi smo kao par

   A
e|--------------------------------------
H|---2--2--------3--3---5--5-----3-5-3--
G|--2-2---------2-2----2-2------2-2-2-3-
D|-2---2-------2---2--2---2-2--2--------
A|--------------------------------------
E|--------------------------------------
    MI smo kao dabar par

G   D  E D A
sve je kao

Djeca kao ne znaju
Starci kao mudruju
Vojnici kao budni
Zene kao vjerne

sve je mutno


e|------------------------
H|------------------------
G|------------------------
D|--2-2------6--2---2-7---    3x
A|--2-2------7--2---2-5---
E|------0-0---------------
    kao,        kao kakao

e|------------------------
H|------------------------
G|------------------------
D|--2-2------6--2---2-7---
A|--2-2------7--2---2-5---
E|------0-0---------------
   ceo, svet je kao kakao

Mi smo kao zivi
Mi smo kao zajedno
Mi se kao volimo
Mi kao nesto sviramo

sve je mutno

kao,kao kakao
kao,kao kakao
kao,kao kakao
ceo, svet je kao kakao

solo:
e|-----------------
H|-----------------
G|-----------------
D|--5_7-5_7-7-7-7--    4x
A|-----------------
E|-----------------


e|------------5----------------------
H|------7-5--5-5-10/12-(12)\10_8-10--
G|-4->6------------------------------
D|-----------------------------------   2x
A|-----------------------------------
E|-----------------------------------


e|----12-------------12-12--12-14-12-17~17~17~-19/21-19-17--
H|--10--10-10--10->14---------------------------------------
G|----------------------------------------------------------
D|----------------------------------------------------------
A|----------------------------------------------------------
E|----------------------------------------------------------

e|----15-17-21-22/24-22/24-22-21-19_21_19_17--
H|--17----------------------------------------
G|--------------------------------------------
D|--------------------------------------------
A|--------------------------------------------
E|--------------------------------------------

e|--(20)\17-20-17/19-17-16/17\16/17--
H|-----------------------------------
G|-----------------------------------
D|-----------------------------------
A|-----------------------------------
E|-----------------------------------
    sve je                    mutno

kao,kao kakao
kao,kao kakao
kao,kao kakao
ceo, svet je kao kakao
Komentari
Još nema komentara