Hladno Pivo

Carstvo Pasea

by:

Pronađi akord!

Ne znaš kako odsvirati neki od akorda pjesmi Carstvo Pasea? Upiši akord u tražilicu i saznaj!

Traženi akord će se prikazati ovdje

Od istog izvođača

Pregledano 2348 puta
Pregledano 3923 puta
Pregledano 9704 puta
Pregledano 10239 puta
Pregledano 2988 puta
Trebaš ritam za ovu pjesmu? Pronađi ga ovdje
Akordi/Tabovi:
                                               

Gitara 1:

                                                                       
E||--------------|-------------------------|--------------------------|
B||--------------|-------------------------|--------------------------|
G||--------------|-------------------------|--------------------------|
D||--9-----------|-------------9-----------|-------------9--------10--|
A||--7--10----7--|----7--7--7--7--10----7--|----7--7--7--7--10----8---|
E||-----8-----5--|----5--5--5-----8-----5--|----5--5--5-----8---------|


                                                               
--------------------------------|------------------------------|
--------------------------------|------------------------------|
--------------------------------|------------------------------|
----10--10--10--10--10--10--10--|--10--10--10--10--9-----------|
----8---8---8---8---8---8---8---|--8---8---8---8---7--10----7--|
--------------------------------|---------------------8-----5--|


                                                     
-------------------------|--------------------------|
-------------------------|--------------------------|
-------------------------|--------------------------|
-------------9-----------|-------------9--------10--|
----7--7--7--7--10----7--|----7--7--7--7--10----8---|
----5--5--5-----8-----5--|----5--5--5-----8---------|


                                                                   
--------------------------------|----------------------------------|
--------------------------------|----------------------------------|
--------------------------------|----------------------------------|
----10--10--10--10--10--10--10--|--10--10--10--10--10--10--10--10--|
----8---8---8---8---8---8---8---|--8---8---8---8---8---8---8---8---|
--------------------------------|----------------------------------|


                                                     
--------------------------|--------------------------|
--------------------------|--------------------------|
--------------------------|--------------------------|
--7--7--7--7--7--7--7--7--|--7--7--7--7--7--7--7--7--|
--------------------------|--------------------------|
--------------------------|--------------------------|


                                                     
--------------------------|--------------------------|
--------------------------|--------------------------|
--------------------------|--------------------------|
--7--7--7--7--7--7--7--7--|--7--7--7--7--7--7--7--7--|
--------------------------|--------------------------|
--------------------------|--------------------------|


                                                     
--------------------------|--------------------------|
--------------------------|--------------------------|
--------------------------|--------------------------|
--7--7--7--7--7--7--7--7--|--7--7--7--7--7--7--7--7--|
--------------------------|--------------------------|
--------------------------|--------------------------|


                                                     
--------------------------|--------------------------|
--------------------------|--------------------------|
--------------------------|--------------------------|
--7--7--7--7--7--7--7--7--|--7--7--7--7--7--7--7--7--|
--------------------------|--------------------------|
--------------------------|--------------------------|


                                                     
--------------------------|--------------------------|
--------------------------|--------------------------|
--------------------------|--------------------------|
--7--7--7--7--7--7--7--7--|--7--7--7--7--7--7--7--7--|
--------------------------|--------------------------|
--------------------------|--------------------------|


                                                     
--------------------------|--------------------------|
--------------------------|--------------------------|
--------------------------|--------------------------|
--7--7--7--7--7--7--7--7--|--7--7--7--7--7--7--7--7--|
--------------------------|--------------------------|
--------------------------|--------------------------|


                                                     
--------------------------|--------------------------|
--------------------------|--------------------------|
--------------------------|--------------------------|
--7--7--7--7--7--7--7--7--|--7--7--7--7--7--7--7--7--|
--------------------------|--------------------------|
--------------------------|--------------------------|


                                                     
--------------------------|--------------------------|
--------------------------|--------------------------|
--------------------------|--------------------------|
--7--7--7--7--7--7--7--7--|--7--7--7--7--7--7--7--7--|
--------------------------|--------------------------|
--------------------------|--------------------------|


                                                     
--------------------------|--------------------------|
--------------------------|--------------------------|
--------------------------|--------------------------|
--7--7--7--7--7--7--7--7--|--7--7--7--7--7--7--7--7--|
--------------------------|--------------------------|
--------------------------|--------------------------|


                                                     
--------------------------|--------------------------|
--------------------------|--------------------------|
--------------------------|--------------------------|
--7--7--7--7--7--7--7--7--|--7--7--7--7--7--7--7--7--|
--------------------------|--------------------------|
--------------------------|--------------------------|


                                                     
--------------------------|--------------------------|
--------------------------|--------------------------|
--------------------------|--------------------------|
--7--7--7--7--7--7--7--7--|--7--7--7--7--7--7--7--7--|
--------------------------|--------------------------|
--------------------------|--------------------------|


                                                                               
--------------------------|--------------------------|-------------------------|
--------------------------|--------------------------|-------------------------|
--------------------------|--------------------------|-------------------------|
--7--7--7--7--7--7--7--7--|--7--7--7--7--7--7--7--7--|-------------------------|
--------------------------|--------------------------|--7----7--7--7--7--7--5--|
--------------------------|--------------------------|--5----5--5--5--5--5--3--|


                                                                             
-------------------------|------------------------|-------------------------|
-------------------------|------------------------|-------------------------|
-------------------------|------------------------|-------------------------|
-------------------------|------------------------|-------------------------|
----5--5--5--5--5--5--5--|--3----3--3--5----5--7--|----7--7--7--7--5--5--5--|
----3--3--3--3--3--3--3--|--1----1--1--3----3--5--|----5--5--5--5--3--3--3--|


                                                                             
-------------------------|-------------------------|------------------------|
-------------------------|-------------------------|------------------------|
-------------------------|-------------------------|------------------------|
-------------------------|-------------------------|------------------------|
--7----7--7--7--7--7--5--|----5--5--5--5--5--5--5--|--3----3--3--5----5--7--|
--5----5--5--5--5--5--3--|----3--3--3--3--3--3--3--|--1----1--1--3----3--5--|


                                                       
-------------------------||---------------------------|
-------------------------||---------------------------|
-------------------------||*--------------------------|
-------------------------||*--7--7--7--7--7--7--7--7--|
----7--7--7--7--5--5--5--||---5--5--5--5--5--5--5--5--|
----5--5--5--5--3--3--3--||---------------------------|


                                                     
--------------------------|--------------------------|
--------------------------|--------------------------|
--------------------------|--------------------------|
--9--9--9--9--9--9--9--9--|--7--7--7--7--7--7--7--7--|
--7--7--7--7--7--7--7--7--|--5--5--5--5--5--5--5--5--|
--------------------------|--------------------------|


                                                             
--------------------------|----------------------------------|
--------------------------|----------------------------------|
--------------------------|----------------------------------|
--9--9--9--9--9--9--9--9--|----------------------------------|
--7--7--7--7--7--7--7--7--|----------------------------------|
--------------------------|--5-5-5-5-5-5-5-5-7-7-7-7-7-7-7-7-|


                                                                     
----------------------------------|----------------------------------|
----------------------------------|----------------------------------|
----------------------------------|----------------------------------|
----------------------------------|----------------------------------|
------------------7-7-7-7-7-7-7-7-|--8-8-8-8-8-8-7-7-8-8-8-8-7-7-8-8-|
--8-8-8-8-8-8-8-8-----------------|----------------------------------|


                                                               
-----------------------------------||--------------------------|
-----------------------------------||--------------------------|
----------------------------------*||--------------------------|
----------------------------------*||-----7-----7-----9-----9--|
--7-7-8-8-8-8-7-7-8-8-8-8-7-7-8-8--||--0-----0-----0-----0-----|
-----------------------------------||--------------------------|


                                                             
----------------------------|-------------------------------|
----------------------------|-------------------------------|
-------------------9-----9--|-----10-----10-----10--10--10--|
-----10-----10--------------|-------------------------------|
--0------0------0-----0-----|--0------0--0---0--0---0---0---|
----------------------------|-------------------------------|


                                                       
----------------------------|-------------------------|
----------------------------|-------------------------|
--10--10--10----------------|-------------------------|
----------------9-----------|-------------9-----------|
--0---0---0-----7--10----7--|----7--7--7--7--10----7--|
-------------------8-----5--|----5--5--5-----8-----5--|


                                                           
--------------------------|--------------------------------|
--------------------------|--------------------------------|
--------------------------|--------------------------------|
-------------9--------10--|----10--10--10--10--10--10--10--|
----7--7--7--7--10----8---|----8---8---8---8---8---8---8---|
----5--5--5-----8---------|--------------------------------|


                                                         
------------------------------|-------------------------|
------------------------------|-------------------------|
------------------------------|-------------------------|
--10--10--10--10--9-----------|-------------9-----------|
--8---8---8---8---7--10----7--|----7--7--7--7--10----7--|
---------------------8-----5--|----5--5--5-----8-----5--|


                                                           
--------------------------|--------------------------------|
--------------------------|--------------------------------|
--------------------------|--------------------------------|
-------------9--------10--|----10--10--10--10--10--10--10--|
----7--7--7--7--10----8---|----8---8---8---8---8---8---8---|
----5--5--5-----8---------|--------------------------------|


                                                             
----------------------------------|--------------------------|
----------------------------------|--------------------------|
----------------------------------|--------------------------|
--10--10--10--10--10--10--10--10--|--7--7--7--7--7--7--7--7--|
--8---8---8---8---8---8---8---8---|--------------------------|
----------------------------------|--------------------------|


                                                                             
--------------------------|--------------------------|----------------------|
--------------------------|--------------------------|----------------------|
--------------------------|--------------------------|------------8----7----|
--7--7--7--7--7--7--7--7--|--7--7--7--7--7--7--7--7--|----------------------|
--------------------------|--------------------------|----------------------|
--------------------------|--------------------------|--3----5--------------|


                                                     
--------------------------|--------------------------|
--------------------------|--------------------------|
--------------------------|--------------------------|
--7--7--7--7--7--7--7--7--|--7--7--7--7--7--7--7--7--|
--------------------------|--------------------------|
--------------------------|--------------------------|


                                                                           
--------------------------|-----------------------|-----------------------|
--------------------------|-----------------------|-----------------------|
--------------------------|-----------------------|-----------------------|
--7--7--7--7--7--7--7--7--|-----0----0----0----0--|-----0----0----0----0--|
--------------------------|-----0----0----0----0--|-----0----0----0----0--|
--------------------------|--0--------------------|--0--------------------|


                                                     
--------------------------|--------------------------|
--------------------------|--------------------------|
--------------------------|--------------------------|
--7--7--7--7--7--7--7--7--|--7--7--7--7--7--7--7--7--|
--------------------------|--------------------------|
--------------------------|--------------------------|


                                                     
--------------------------|--------------------------|
--------------------------|--------------------------|
--------------------------|--------------------------|
--7--7--7--7--7--7--7--7--|--7--7--7--7--7--7--7--7--|
--------------------------|--------------------------|
--------------------------|--------------------------|


                                                     
--------------------------|--------------------------|
--------------------------|--------------------------|
--------------------------|--------------------------|
--7--7--7--7--7--7--7--7--|--7--7--7--7--7--7--7--7--|
--------------------------|--------------------------|
--------------------------|--------------------------|


                                                     
--------------------------|--------------------------|
--------------------------|--------------------------|
--------------------------|--------------------------|
--7--7--7--7--7--7--7--7--|--7--7--7--7--7--7--7--7--|
--------------------------|--------------------------|
--------------------------|--------------------------|


                                                     
--------------------------|--------------------------|
--------------------------|--------------------------|
--------------------------|--------------------------|
--7--7--7--7--7--7--7--7--|--7--7--7--7--7--7--7--7--|
--------------------------|--------------------------|
--------------------------|--------------------------|


                                                     
--------------------------|--------------------------|
--------------------------|--------------------------|
--------------------------|--------------------------|
--7--7--7--7--7--7--7--7--|--7--7--7--7--7--7--7--7--|
--------------------------|--------------------------|
--------------------------|--------------------------|


                                                     
--------------------------|--------------------------|
--------------------------|--------------------------|
--------------------------|--------------------------|
--7--7--7--7--7--7--7--7--|--7--7--7--7--7--7--7--7--|
--------------------------|--------------------------|
--------------------------|--------------------------|


                                                                         
--------------------------|--------------------------|--5----------------|
--------------------------|--------------------------|--5----------------|
--------------------------|--------------------------|--5----------------|
--7--7--7--7--7--7--7--7--|--7--7--7--7--7--7--7--7--|--7----------------|
--------------------------|--------------------------|--7----------------|
--------------------------|--------------------------|--5----------------|


                                                             
--3----------------|--1--------3--------|--5----------------|
--3----------------|--1--------3--------|--5----------------|
--4----------------|--2--------4--------|--5----------------|
--5----------------|--3--------5--------|--7----------------|
--5----------------|--3--------5--------|--7----------------|
--3----------------|--1--------3--------|--5----------------|


                                                             
--5----------------|--3----------------|--1--------3--------|
--5----------------|--3----------------|--1--------3--------|
--5----------------|--4----------------|--2--------4--------|
--7----------------|--5----------------|--3--------5--------|
--7----------------|--5----------------|--3--------5--------|
--5----------------|--3----------------|--1--------3--------|


                                                                         
--5----------------|--------------------------|--------------------------|
--5----------------|--------------------------|--------------------------|
--5----------------|--------------------------|--------------------------|
--7----------------|--7--7--7--7--7--7--7--7--|--9--9--9--9--9--9--9--9--|
--7----------------|--5--5--5--5--5--5--5--5--|--7--7--7--7--7--7--7--7--|
--5----------------|--------------------------|--------------------------|


                                                     
--------------------------|--------------------------|
--------------------------|--------------------------|
--------------------------|--------------------------|
--7--7--7--7--7--7--7--7--|--9--9--9--9--9--9--9--9--|
--5--5--5--5--5--5--5--5--|--7--7--7--7--7--7--7--7--|
--------------------------|--------------------------|


                                                     
--------------------------|--------------------------|
--------------------------|--------------------------|
--------------------------|--------------------------|
--------------------------|--------------------------|
--------------------------|--------------7--7--7--7--|
--5--5--5--5--7--7--7--7--|--8--8--8--8--------------|


                                                     
--------------------------|--------------------------|
--------------------------|--------------------------|
--------------------------|--------------------------|
--------------------------|--------------------------|
--8--8--8--8--8--8--8--8--|--8--8--8--8--8--8--8--8--|
--------------------------|--------------------------|


                                                     
--------------------------|--------------------------|
--------------------------|--------------------------|
--------------------------|--------------------------|
--7--7--7--7--7--7--7--7--|--9--9--9--9--9--9--9--9--|
--5--5--5--5--5--5--5--5--|--7--7--7--7--7--7--7--7--|
--------------------------|--------------------------|


                                                     
--------------------------|--------------------------|
--------------------------|--------------------------|
--------------------------|--------------------------|
--7--7--7--7--7--7--7--7--|--9--9--9--9--9--9--9--9--|
--5--5--5--5--5--5--5--5--|--7--7--7--7--7--7--7--7--|
--------------------------|--------------------------|


                                                                               
--------------------------|----------------------------|----------------------|
--------------------------|----------------------------|----------------------|
--------------------------|-------------------9-----9--|----------------------|
-----7-----7-----9-----9--|-----10-----10--------------|--10--10--------------|
--0-----0-----0-----0-----|--0------0------0-----0-----|--8---8---------------|
--------------------------|----------------------------|----------------------|


                                                                           
----------------------|-------------------------|--------------------------|
----------------------|-------------------------|--------------------------|
----------------------|-------------------------|--------------------------|
----------9-----------|-------------9-----------|-------------9--------10--|
----------7--10----7--|----7--7--7--7--10----7--|----7--7--7--7--10----8---|
-------------8-----5--|----5--5--5-----8-----5--|----5--5--5-----8---------|


                                                               
--------------------------------|------------------------------|
--------------------------------|------------------------------|
--------------------------------|------------------------------|
----10--10--10--10--10--10--10--|--10--10--10--10--9-----------|
----8---8---8---8---8---8---8---|--8---8---8---8---7--10----7--|
--------------------------------|---------------------8-----5--|


                                                     
-------------------------|--------------------------|
-------------------------|--------------------------|
-------------------------|--------------------------|
-------------9-----------|-------------9--------10--|
----7--7--7--7--10----7--|----7--7--7--7--10----8---|
----5--5--5-----8-----5--|----5--5--5-----8---------|


                                                                   
--------------------------------|----------------------------------|
--------------------------------|----------------------------------|
--------------------------------|----------------------------------|
----10--10--10--10--10--10--10--|--10--10--10--10--10--10--10--10--|
----8---8---8---8---8---8---8---|--8---8---8---8---8---8---8---8---|
--------------------------------|----------------------------------|


                                                                             
-------------------------|-------------------------|------------------------|
-------------------------|-------------------------|------------------------|
-------------------------|-------------------------|------------------------|
-------------------------|-------------------------|------------------------|
--7----7--7--7--7--7--5--|----5--5--5--5--5--5--5--|--3----3--3--5----5--7--|
--5----5--5--5--5--5--3--|----3--3--3--3--3--3--3--|--1----1--1--3----3--5--|


                                                                             
-------------------------|-------------------------|-------------------------|
-------------------------|-------------------------|-------------------------|
-------------------------|-------------------------|-------------------------|
-------------------------|-------------------------|-------------------------|
----7--7--7--7--5--5--5--|--7----7--7--7--7--7--5--|----5--5--5--5--5--5--5--|
----5--5--5--5--3--3--3--|--5----5--5--5--5--5--3--|----3--3--3--3--3--3--3--|


                                                                             
------------------------|-------------------------|-------------------------|
------------------------|-------------------------|-------------------------|
------------------------|-------------------------|-------------------------|
------------------------|-------------------------|--7----7--7--7--7--7--7--|
--3----3--3--5----5--7--|----7--7--7--7--5--5--5--|-------------------------|
--1----1--1--3----3--5--|----5--5--5--5--3--3--3--|--5----5--5--5--5--5--5--|


                                                         
-------------------------|------------------------------|
-------------------------|------------------------------|
-------------------------|------------------------------|
----5--5--5--5--5--5--5--|--10----10--10--12----12--12--|
-------------------------|------------------------------|
----3--3--3--3--3--3--3--|--8-----8---8---10----10--10--|


                                                                             
-------------------------|-------------------------|-------------------------|
-------------------------|-------------------------|-------------------------|
-------------------------|-------------------------|-------------------------|
----7--7--7--7--5--5--5--|--7----7--7--7--7--7--7--|----5--5--5--5--5--5--5--|
-------------------------|-------------------------|-------------------------|
----5--5--5--5--3--3--3--|--5----5--5--5--5--5--5--|----3--3--3--3--3--3--3--|


                                                                     
------------------------------|-------------|----------------------||
------------------------------|-------------|----------------------||
------------------------------|-------------|----------------------||
--10----10--10--12----12--12--|----7--7--7--|--9-------------------||
------------------------------|-------------|--7--10----7----------||
--8-----8---8---10----10--10--|----5--5--5--|-----8-----5----------||
Komentari

alen993 kaže:

dajte dionicu za bass!!!

24-08-2009 16:10