Opća Opasnost

Treba mi nesto jace od sna

by:

Pronađi akord!

Ne znaš kako odsvirati neki od akorda pjesmi Treba mi nesto jace od sna? Upiši akord u tražilicu i saznaj!

Traženi akord će se prikazati ovdje

Od istog izvođača

Pregledano 16434 puta
Pregledano 5700 puta
Pregledano 24982 puta
Pregledano 13106 puta
Pregledano 710 puta
Trebaš ritam za ovu pjesmu? Pronađi ga ovdje
Akordi/Tabovi:
Ritam Gitara:
E||-----------------------||
B||-----------------------||\
G||-----------------------|| \   Ovo ide tijekom cijelog
D||--5x-5x-5x---3x-5x-2x--|| /   Uvoda!!! (osim tamo gdje je receno da se ne svira)
A||--7x-8x-5x---5x-5x-3x--||/
E||-----------------------||

Solo Gitara (ulazak u pjesmu...)
E||--------------------||
B||--------------------||\
G||--------------5-----|| \   S ovim se pocinje nakon sto ritam gitara odsvira
D||--7------3----5-----|| /   4 puta uvodni riff !!! (ovo takoder 4 puta)
A||--5------1----------||/
E||--------------------||

Solo Gitara (uvodni solo...)
E||-------------------------------------------||
B||-------5--6--8--6--5--6--5-----5-----------||\
G||----7-----------------------7-----7--5-----|| \   Uvodni solo, svira se 2 puta
D||-------------------------------------------|| /   puta. Ak se ne varam, Svira ga
A||-------------------------------------------||/    jos jedna gitara za tercu nize.
E||-------------------------------------------||

U ovom djelu ritam gitara prestaje svirati... (mozda svira istu ovu dionicu...)

E||----------------------------------|------||
B||----------------------------------|------||\
G||---7-7--5----------7-----3--3--5--|--6---|| \   ovo takoder ide
D||---7-7--5-----7-7--7-----3--3--5--|--6---|| /   2 puta
A||--------------7-7-----------------|------||/
E||----------------------------------|------||

        Sada pocinje dio gdje dolazi i vokal, glupo mi je da pisem sve to. Uglavnom,
jedna gitara (ritam gitara) stopa rifove (dead note) dok ih druga  (solo gitara)
naglasava. Poslusajte pjesmu pa ce vam biti jasnije....


RIFFOVI U PJESMI !!!
     A5  B5  F5  C5  D5  C#5  B5'  C5'  G5
E||--------------------------------------------||
B||--------------------------------------------||\
G||----------5----------------3----5-----------|| \   Riffovi u pjesmi, ja ih ovako
D||------3---3---5---7---6----3----5-----------|| /   sviram, ali ih mozete svirati
A||--7---1-------3---5---4--------------5------||/    i na drugim mjestima ako vam
E||--5----------------------------------3------||     se vise svida...


Tekst:

D5
Jos jedan dan,
B5        F5'   C5    D5
Jos jedno jutro bez tebe...
Prokleto sam,
B5       F5'    C5    B5
Sjecanja salje vjetrove.

Al' ipak te necu zvati,
C5                      B5
Pa neka me vjetar razbije.
                 C5
Neka me tuge poraze,
       C#5
Zbog tebe !!!

REF:
D5       C5 (TISINA...)
Treba mi nesto, jace od sna,
      B5' C5'       G5
Da me uspava tisucu godina.
D5     C5   A5       D5
U meni gore vatre sa dna,
       B5 C5           G5
Ja sam umoran od tudih pogleda.

D5       C5     A5     D5
Treba mi nesto, jace od sna,
      B5  C5        G5
Da me uspava tisucu godina.
D5     C5   A5       D5
U meni gore vatre sa dna,
       B5 C5           C#5
Ja sam umoran od tudih pogleda !!!

Uvodni solo...

Jos samo san,
Sve mi je drugo nestalo...
Gledam u dlan,
A tvoje je ime ostalo...
Al ipak te necu zvati,
Pa neka se sruse planine.
Neka me tuge poraze,
Zbog tebe !!!

REF:

Glavni solo:
E||-------------------------------------------------------------------------------||
B||-15h17-17h18-17--15-15h17-15~--------------------------------------------------||
G||---------------------------------14-14--15--17--14h15p14h15p14s12--------------||
D||------------------------------------------------------------------12~----------||
A||-------------------------------------------------------------------------------||
E||-------------------------------------------------------------------------------||

E||-------------------------------------------------------------------------------||
B||-----------------------------------------------------17~-----------------------||
G||----------------10h12p10-12h14p12-14h15p14-15h17p15----------------------------||
D||-12h14p12h15p12----------------------------------------------------------------||
A||-------------------------------------------------------------------------------||
E||-------------------------------------------------------------------------------||

E||---------------------------------------------------------18h20p18--20-22~~~----||
B||-15h17p15h17p15h17p15h18p15h17p15-17s18h20p18h20p18h20p18----------------------||
G||-------------------------------------------------------------------------------||
D||-------------------------------------------------------------------------------||
A||-------------------------------------------------------------------------------||
E||-------------------------------------------------------------------------------||
   Taping ... dvanaest puta ponoviti dio u zagradi...
E||-(12t7h9h10)-------------9~----10~---------------------------------------------||
B||-----------------10~-----------------------------------------------------------||
G||-------------------------------------------------------------------------------||
D||-------------------------------------------------------------------------------||
A||-------------------------------------------------------------------------------||
E||-------------------------------------------------------------------------------||

REF:
Komentari

Žare kaže:

hvala, samo nisi uvod dobro anpravio, obrunto si napisao

09-02-2009 15:02

Annchy kaže:

meni treba našto jače od sna!

22-08-2009 17:01

bana123 kaže:

pokušaj sa andolom

18-11-2009 14:03

frnjavkci kaže:

jel može neko napisat onaj uvod ispravno...pls...jel ne želim ispast glup ...jer mislim da je ono 2 i 3 viska....unapride hvala xD

16-10-2010 22:00