Opća Opasnost

Nebeski znak

by:

Pronađi akord!

Ne znaš kako odsvirati neki od akorda pjesmi Nebeski znak? Upiši akord u tražilicu i saznaj!

Traženi akord će se prikazati ovdje

Od istog izvođača

Pregledano 11887 puta
Pregledano 2614 puta
Pregledano 8538 puta
Pregledano 35641 puta
Pregledano 23326 puta
Trebaš ritam za ovu pjesmu? Pronađi ga ovdje
Akordi/Tabovi:
      D                          G
E||---------------0h-2--------|-------------------------|
B||---------3-----------3-----|-----------3/---5/-3-----|
G||------2-----2-----------2--|--------0-------------0--|
D||---0-----------------------|-----0-------------------|
A||---------------------------|-------------------------|
E||---------------------------|--3----------------------|
     Cadd9                      D
E||--------------3h-0--------|--------------0h-2---------||
B||--------3-----------3-----|--------3-----------3------||
G||-----------0-----------0--|-----2-----2-----------2---||
D||-----2--------------------|--0------------------------||
A||--3-----------------------|---------------------------||
E||--------------------------|---------------------------||

Riff 2: (Izmedu dvije kitice,)

- Ovo je pauza izmedu prve dvije kitice, Ovo treba odsvitati
  s distorzijom, a druga gitara nastavlja prebitati...
     D5                      c5
E||-----------------------|-----------------------|
B||-----------------------|-----------------------|
G||-----------------------|-----------------------|
D||--7x-7x-7x-7x-7--------|--5x-5x-5x-5x-5--------|
A||--5x-5x-5x-5x-5--------|--3x-3x-3x-3x-3--------|
E||-----------------------|-----------------------|
     G5
E||---------------------------||
B||---------------------------||
G||---------------------------||
D||---------------------------||
A||--5x-5x-5x-5x-5------------||
E||--3x-3x-3x-3x-3------------||

Riff 3: (Izmedu dvije kitice,)

- Jedna gitara lupa riffove kao u Riffu 2, dok druga prebire
  ove tonove koje sam napisao, dobro bi doslo malo waha,
  ako se ne varam...

      D5                        c5
E||--------------------------|------------------------|
B||-----------------7--------|--5----------3----5--3--|
G||-----------7--------7-----|-------5----------------|
D||--------7-----7--------7--|----------5-------------|
A||---5----------------------|------------------------|
E||--------------------------|------------------------|
     G5                         D5
E||-----------------3--------|-------------------------||
B||-----------3--------3-----|--7----------5----7--7---||
G||--4-----4-----4--------4--|-------7-----------------||
D||--------------------------|----------7--------------||
A||-----5--------------------|-------------------------||
E||--------------------------|-------------------------||

SOLO:
E||---------------------------------------------------------------------------------|
B||-------7h8/10---10-10b12----8b10-8----8p7h8p7h8p7----10--------------------------|
G||--7h9----------------------------------------------9/11r9---7~-------------------|
D||---------------------------------------------------------------------------------|
A||---------------------------------------------------------------------------------|
E||---------------------------------------------------------------------------------|

E||--------------------------10-12-10---10--17b19r17b19r17b19r17-------17-----------|
B||-------7h8/10---10-10/12--------------------------------------15-17b19r-17--15~--|
G||--7h9----------------------------------------------------------------------------|
D||---------------------------------------------------------------------------------|
A||---------------------------------------------------------------------------------|
E||---------------------------------------------------------------------------------|

E||---------------------------------------------------------------------------------|
B||--7~------7------------------5---3~~----------7~-------7-8-8b10--7b8--8/15-------|
G||------7------7/9--5~------4------------------------7-----------------------------|
D||-----------------------5---------------------------------------------------------|
A||---------------------------------------------------------------------------------|
E||---------------------------------------------------------------------------------|

E||------------14------------------------------------------------------------------||
B||-----15--------15~~-------------------------------------------------------------||
G||--14----14----------------------------------------------------------------------||
D||--------------------------------------------------------------------------------||
A||--------------------------------------------------------------------------------||
E||--------------------------------------------------------------------------------||


____________
P J E S M A :


Riff1:

D              G
Sjedim sam, u sobi je mrak
Cadd9        D
Dim cigarete miluje mi noc
           G
Cekam neki nebeski znak
Cadd9       D
Da mi vrati ljubav i moc

Riff2:

Umiru tiho svjetla mog grada
Opijen tugom tonem u san
Sanovi mi jutrom postoji nada
Ili jos jedan sumoran dan

Riff 3:

REF:

D5         C5
A ti, koja jedina znas
G5                 D5
Skrivene strasti u meni
D5         C5
A ti, koja nikome se ne das
G5               D5
Ostavljas mene u sjeni

A ti, koja...

SOLO:

Duhovi tame u mojoj sobi
Prizivaju opet moju samocu
Ljubavnim bolom srce mi zdrobi
Bol koja dolazi samo nocu

Riff 2:

Ne mogu vise bjezat od sebe
Slusat u sobi zvuke tisine
Ova je noc sakrila tebe
A ti si dio moje sudbine

Riff 3:

REF:

A Ti, koja...
Komentari

frunc kaže:

ono na cleanu ide
D Cadd9 G D ;)
zamjenija si Cadd9 i G ko god jesi da jesi napisa ovo :D

25-06-2007 19:08

GoFgO kaže:

ma pogle, sam ti dodaj verziju 2 :)

26-06-2007 04:29