Opća Opasnost

Mjesecar

by:

Pronađi akord!

Ne znaš kako odsvirati neki od akorda pjesmi Mjesecar? Upiši akord u tražilicu i saznaj!

Traženi akord će se prikazati ovdje

Od istog izvođača

Pregledano 69100 puta
Pregledano 4791 puta
Pregledano 5942 puta
Pregledano 6755 puta
Pregledano 3507 puta
Trebaš ritam za ovu pjesmu? Pronađi ga ovdje
Akordi/Tabovi:
Uvod i strofa - razlaganje
      A         C#m       G#m        A              E         G#m      H
E|----0-----|-----4---|---------|---------|-------0-----|-------4----|----|
H|----2-----|-----5---|-----4---|-----5---|-----0--0--0-|---------4--|-4--|
G|----2-----|-----6---|-----4---|-----6---|---1--1---1--|------------|-4--|
D|-2--------|--6------|-----6---|-----7---|-------------|-----6------|-4--|
A|0---------|-4-------|--6------|--7------|-------------|---6--------|-2--|
E|----------|---------|-4-------|-5-------|-0-----------|-4----------|----|

      A         C#m       G#m        A                       E                  H
E|----0-----|-----4---|---------|---------|----------0----------------0------|----|
H|----2-----|-----5---|-----4---|-----5---|------0-----0---0------0-----0---0|-4--|
G|----2-----|-----6---|-----4---|-----6---|----1---1-----1------1---1-----1--|-4--|
D|-2--------|--6------|-----6---|-----7---|----------------------------------|-4--|
A|0---------|-4-------|--6------|--7------|----------------------------------|-2--|
E|----------|---------|-4-------|-5-------|-0----------------0---------------|----|


A C#m G#m      A     E   G#m H
Hodas po mojim snovima
A C#m  G#m      A     E  E   H
Spavas na mojim usnama
A    C#m G#m      A   E  G#m H
Lazes da vjerujes ocima
A      C#m    G#m      D     H   E
Krades svijet sa mojih dlanova

Ref:
A  E  H     C#m
Budim se iz ludila
A  E  H         C#m
Ti si trnje pod nogama
A  E   H             C#m
Slijep sam od tvojih dodira
A       E    H
Pobjeci moraaaam.

(ponoviti razlaganje iz 1. strofe)

A C#m G#m    A     E   G#m H
         ...pusti me...


A C#m G#m      A     E   G#m  H
Lutas po mojim mislima
A C#m G#m      A     E  E   H
Setas po mojim pjesmama
A    C#m G#m       A     E G#m H
Uzimas, a sve si vec uzela
A      C#m    G#m   D   H   E
Krades mir sa mojih usana

Ref: 2×

Bridge:
F#m          A             E
Ja sam zarobljen tvojim ocima
G#m                 F#m
Ja te slijepo pratim
(F#m)    A               E    H
Kao mjesecar na rubu ponoraaaaa



A C#m G#m    A     E   G#m H
         ...pusti me...
Komentari
Još nema komentara