Leb I Sol

Pajdusko

by:

Pronađi akord!

Ne znaš kako odsvirati neki od akorda pjesmi Pajdusko? Upiši akord u tražilicu i saznaj!

Traženi akord će se prikazati ovdje

Od istog izvođača

Pregledano 2994 puta
Pregledano 9838 puta
Pregledano 2499 puta
Pregledano 2885 puta
Pregledano 2396 puta
Trebaš ritam za ovu pjesmu? Pronađi ga ovdje
Stisnite Print verziju, valjda ce izgledati bolje tab.


Akordi/Tabovi:
E|----8--8--8--6--5------------5----------------------------------------------------------------|
H|-------------------8--8--6------8--6--5-----5-----------5--6--6--6--5-----5------5------------|
G|-5---------------------------------------7-----5--5--7-----------------7-----5-----7--7--7--7-|
D|----------------------------------------------------------------------------------------------|
A|----------------------------------------------------------------------------------------------|
E|----------------------------------------------------------------------------------------------|

E|-------5--------------------------5--------------------------5--------------------------------|
H|-6--8-----8--6--5-----5-----6--8-----8--6--5-----5-----6--8-----8--6--5-----5-----------5--6--|
G|-------------------7-----5--------------------7-----5--------------------7-----5--5--7--------|
D|----------------------------------------------------------------------------------------------|
A|----------------------------------------------------------------------------------------------|
E|----------------------------------------------------------------------------------------------|

E|------------------------------------|
H|--6--6--5-----5-----5---------------|
G|-----------7-----5-----7--7--7--7---|
D|------------------------------------|
A|------------------------------------|
E|------------------------------------|

E|-------5--6-----5------------------------------------------5--6-----5--------------------------|
H|-7--8--------8-----8--7------7-----------------7--8--7--8--------8-----8--7------7-------------|
G|--------------------------8-----8--7--5--7--8---------------------------------8-----8--7--5-7-7|
D|-----------------------------------------------------------------------------------------------|
A|-----------------------------------------------------------------------------------------------|
E|-----------------------------------------------------------------------------------------------|

E|-----------------------------------------------------------------------------------------------|
H|-7P-----------------7--8--7P-----------------7--8--7P-----------------7--8--7P-----------------|
G|-----8--7--5--7--8------------8--7--5--7--8------------8--7--5--7--8------------8--7--5--7--7--|
D|-----------------------------------------------------------------------------------------------|
A|-----------------------------------------------------------------------------------------------|
E|-----------------------------------------------------------------------------------------------|

E|-10--10--10----------8------8------------------------------------------------------------------|
H|-------------10--10-----11-----11--10--8------8--10--11--8--10--8S7-----7-----------------7--8-|
G|------------------------------------------11-------------------------8-----8--7------7--8------|
D|---------------------------------------------------------------------------------10------------|
A|-----------------------------------------------------------------------------------------------|
E|-----------------------------------------------------------------------------------------------|

E|------------------|
H|------------------|
G|--8--7------7--7--|
D|--------10--------|
A|------------------|
E|------------------|
Komentari
Još nema komentara