Leb I Sol

Kako Ti Je Drago

by:

Pronađi akord!

Ne znaš kako odsvirati neki od akorda pjesmi Kako Ti Je Drago? Upiši akord u tražilicu i saznaj!

Traženi akord će se prikazati ovdje

Od istog izvođača

Pregledano 3634 puta
Pregledano 4085 puta
Pregledano 39529 puta
Pregledano 2588 puta
Pregledano 7575 puta
Trebaš ritam za ovu pjesmu? Pronađi ga ovdje
Akordi/Tabovi:
Nastimujte gitaru na sledeci nacin: HADGHe, tj sestu zicu spustite 5
* polustepena, tako da njen 12ti prag bude iste visine kao drugi prag
* pete(A) zice.

uvod i glavni riff:
akusticni zvuk
-------------------------------------------------  ---------------
-------------------------------------------------  ---------------
-------------------------------------------------  ---------------
-------------------------------------------------  ---------------
--/9-7-5-----------------------------------------  ---------------
---------5/7-10/12\10-5/7-10/12\10-5/7-10/12-0---  -0-------------

blaga distorzija(0:36)
---------------------10p9--------------------------7h9h10p9p7--7---
--12b(14)===r(12)-12-----10b(12)~-10p9-10----7h9h10----------10-10-
-9-----------------------------------------------------------------
-------------------------------------------------------------------
-------------------------------------------------------------------
-------------------------------------------------------------------

-------------------------10--------12------------------------------
7h9h10p9p7----------5/7------7/9-----------------------------------
-----------9p7-9---------------------------------------------------
-------------------------------------------------------------------
-------------------------------------------------------------------
-------------------------------------------------------------------


glavni riff (oktava vise) x2
--------------------------------------------------------------------
--7~-5-3------------------------------------------------------------
-------------2h4-2-----2h4-2-----2h4--------------------------------
---------2/4-------2/4-------2/4------------------------------------
--------------------------------------------------------------------
-------------------------------------0------------------------------

(1:04)
bas solo-gitara u pozadini x4
-----------------9--------------------9---------------------7---------------------7-
------------------------------------------------------------------------------------
6-6-6-6--6-6-6-6--6--6-6-6-6--6-6-6-6---6--4-4-4-4--4-4-4-4---4--4-4-4-4--4-4-4-4--4
------------------------------------------------------------------------------------
------------------------------------------------------------------------------------
------------------------------------------------------------------------------------

prelaz:
------------------------------------------12~~~~-14b(16)r14-14~--10-10h11h12p11p10-
-----------------------------------------------------------------------------------
-----------------------------------------------------------------------------------
-------------------14--16-14-16----------------------------------------------------
-14-14-14-14-16-17-----------------------------------------------------------------
-----------------------------------------------------------------------------------

----------------------------------------------------12~~~~14b(16)-14--15~-17~-19~--
-12-12p11p10-12-12p11p10\9-10------------------------------------------------------
-----------------------------------------------------------------------------------
----------------------------------------14-16-14-16--------------------------------
--------------------------------14-16-17-------------------------------------------
-----------------------------------------------------------------------------------

-----------------------------------------------------------------------------------
-7h9h10-12p11p10-------------------------------------------------------------------
----------------11p10p9-9p8p7--9b(11)~~~~~~~~~~------------------------------------
-----------------------------------------------------------------------------------
-----------------------------------------------------------------------------------
-----------------------------------------------------------------------------------

drugi solo: klavijature(mada u pozadini gitara svira kao i za prvi solo)
Komentari
Još nema komentara