Leb I Sol

Devetka

by:

Pronađi akord!

Ne znaš kako odsvirati neki od akorda pjesmi Devetka? Upiši akord u tražilicu i saznaj!

Traženi akord će se prikazati ovdje

Od istog izvođača

Pregledano 2342 puta
Pregledano 9838 puta
Pregledano 3965 puta
Pregledano 3087 puta
Pregledano 4649 puta
Trebaš ritam za ovu pjesmu? Pronađi ga ovdje
Akordi/Tabovi:
Uvod:
E-------6/8b----------------------------------------------------
H—7/8b-8----11-9--8------8b-------------------------------------
G-------------------10-8----10--8-7-----7b------------7-8-10-8--
D----------------------------------10-8----10--10-9-10----------
A---------------------------------------------------------------
E---------------------------------------------------------------

E--------8b----------------------------------
H—6/8-88---11-9-8h9p8----8b------------------
G--------------------10-8--10--8-7-----7b----
D---------------------------------10-8---10--
A--------------------------------------------
E--------------------------------------------

Figura 1
E--------------------------------------------6/8------
H------------------------6/8-8-9--9--8------8---11-9--
G----------7-7h8--7-8-10--------10--------------------
D--10--9-10-------------------------------------------
A-----------------------------------------------------
E-----------------------------------------------------

E-------------------------------
H--8----8b----------------------
G---10-8--10-8-7----7b----------
D---------------10-8--10----10--
A-------------------------------
E-------------------------------

E--------------------------------------6/8------
H------------------------6/8-8-9--9-8-8---11-9--
G----------7-7h8--7-8-10--------10--------------
D--10--9-10-------------------------------------
A-----------------------------------------------
E-----------------------------------------------

E-------------------------
H--8----8b----------------
G---10-8—-10-8-7----7b----
D---------------10-8--10--
A-------------------------
E-------------------------

Figura 2
E-----8b--------------------------------------------
H—8b-8--11-9-8----8b--------------------------------
G-------------10-8--10-8-7----7b----------7-8-10-8--
D-------------------------10-8--10-10-9-10----------
A---------------------------------------------------
E---------------------------------------------------

E------6/8b----------------------------
H-6/888----11-9-8----8b----------------
G----------------10-8--10-8-7----7b----
D----------------------------10-8--10--
A--------------------------------------
E--------------------------------------

Figuru 1 sviraju tri gitare jedna za drugom.Cim prva gitara odsvira
treci ton ukljucuje se druga,a poslije druge po istom postupku i treca.


Redosled

Uvod
Figura 1
Figura 2
Figura 1
Figura 2
Solo-klavijature
Figura 2
Komentari
Još nema komentara