Leb I Sol

Cudo Za Tri Dana

by:

Pronađi akord!

Ne znaš kako odsvirati neki od akorda pjesmi Cudo Za Tri Dana? Upiši akord u tražilicu i saznaj!

Traženi akord će se prikazati ovdje

Od istog izvođača

Pregledano 4649 puta
Pregledano 2499 puta
Pregledano 2994 puta
Pregledano 2396 puta
Pregledano 3965 puta
Trebaš ritam za ovu pjesmu? Pronađi ga ovdje
Akordi/Tabovi:
Solo :
e|------------------5---------------------------------------------------
H|-------3-5b7-5b7----5b7r5-3------3-5-3--------------------------------
G|---2-4------------------------/4-------4-2----------------------------
D|--------------------------------------------4--2---------2-0-2-0-/4-0
A|-------------------------------------------------4-2-4----------------
E|----------------------------------------------------------------------

---------------------------------------------9-9b10\---9-7--9-7-9-10-10b12\-
----------------------------12-10--12-10--12--------------------------------
----------------7-9-11-7----------------------------------------------------
----7-9b11r9--9-------------------------------------------------------------
-/9-------------------------------------------------------------------------
----------------------------------------------------------------------------

-----14-15-17-17b19------14-15-17-19r17b19r-14---14-------14-----------17------------
---15------------------15---------------------------17b19-----15-17b19----19-19r17-15
--x-------------------x------------------------------------------(drzati bend)-------
-------------------------------------------------------------------------------------
-------------------------------------------------------------------------------------
-------------------------------------------------------------------------------------

------14-17--------------------------------------------------------------------------
17b19-------17b19--15--17-15----15-15\------15-15-15---15--17b19-17b19-19b20-19b20-15
-----------------------------16---------/16----------16------------------------------
-------------------------------------------------------------------------------------
-------------------------------------------------------------------------------------
-------------------------------------------------------------------------------------

e|--------14--------14--------14-15-17---17-15--17-15-15-17-17b19----||
H|--17b19-----17b19----17b19-----------------------------------------||
G|-------------------------------------------------------------------||
D|-------------------------------------------------------------------||
A|-------------------------------------------------------------------||
E|-------------------------------------------------------------------||
Komentari
Još nema komentara