Ramones

The Crusher

by: Armstrong

Pronađi akord!

Ne znaš kako odsvirati neki od akorda pjesmi The Crusher? Upiši akord u tražilicu i saznaj!

Traženi akord će se prikazati ovdje

Od istog izvođača

Pregledano 2127 puta
Pregledano 903 puta
Pregledano 2396 puta
Pregledano 873 puta
Pregledano 2026 puta
Trebaš ritam za ovu pjesmu? Pronađi ga ovdje
Akordi/Tabovi:
Intro

E|-------------------|--------------------------|--------------|
B|-------------------|--------------------------|--------------|
G|-9-9-9-9-9-9-12-11-|--------------------------|--------------|
D|-9-9-9-9-9-9-12-11-|-12-11--10-10-10-10-10-10-|-7-7-7-7-7-7--|
A|-7-7-7-7-7-9-10--9-|-12-11--10-10-10-10-10-10-|-7-7-7-7-7-7--|
e|-------------------|-10--9---8--8--8--8--8--8-|-5-5-5-5-5-5--|

E|-------------------|--------------------------|--------------|
B|-------------------|--------------------------|--------------|
G|-9-9-9-9-9-9-12-11-|--------------------------|--------------|
D|-9-9-9-9-9-9-12-11-|-12-11--10-10-10-10-10-10-|-7-7-7-7-7-7--|
A|-7-7-7-7-7-9-10--9-|-12-11--10-10-10-10-10-10-|-7-7-7-7-7-7--|
e|-------------------|-10--9---8--8--8--8--8--8-|-5-5-5-5-5-5--|

Verse

E|-------------------|--------------------------|--------------|
B|-------------------|--------------------------|--------------|
G|-9-9-9-9-9-9-12-11-|--------------------------|--------------|
D|-9-9-9-9-9-9-12-11-|-12-11--10-10-10-10-10-10-|-7-7-7-7-7-7--|
A|-7-7-7-7-7-9-10--9-|-12-11--10-10-10-10-10-10-|-7-7-7-7-7-7--|
e|-------------------|-10--9---8--8--8--8--8--8-|-5-5-5-5-5-5--|
   ............................................................
P.M.

E|-------------------|--------------------------|--------------|
B|-------------------|--------------------------|--------------|
G|-9-9-9-9-9-9-12-11-|--------------------------|--------------|
D|-9-9-9-9-9-9-12-11-|-12-11--10-10-10-10-10-10-|-7-7-7-7-7-7--|
A|-7-7-7-7-7-9-10--9-|-12-11--10-10-10-10-10-10-|-7-7-7-7-7-7--|
e|-------------------|-10--9---8--8--8--8--8--8-|-5-5-5-5-5-5--|
   ............................................................
P.M.

Bridge

E|--------------------------|-----------------------|
B|--------------------------|-----------------------|
G|--11-11-11-11-11-11-11-11-|-14-14-14-14--9-9-9-9--|
D|--11-11-11-11-11-11-11-11-|-14-14-14-14--9-9-9-9--|
A|---9--9--9--9--9--9--9--9-|-12-12-12-12--7-7-7-7--|
e|--------------------------|-----------------------|

E|--------------------------|-------------------------|
B|--------------------------|-------------------------|
G|--11-11-11-11-11-11-11-11-|-14-14-14-14-14-14-14-14-|
D|--11-11-11-11-11-11-11-11-|-14-14-14-14-14-14-14-14-|
A|---9--9--9--9--9--9--9--9-|-12-12-12-12-12-12-12-12-|
e|--------------------------|-------------------------|

Chourus

E|-------------------|--------------------------|--------------|
B|-------------------|--------------------------|--------------|
G|-9-9-9-9-9-9-12-11-|--------------------------|--------------|
D|-9-9-9-9-9-9-12-11-|-12-11--10-10-10-10-10-10-|-7-7-7-7-7-7--|
A|-7-7-7-7-7-9-10--9-|-12-11--10-10-10-10-10-10-|-7-7-7-7-7-7--|
e|-------------------|-10--9---8--8--8--8--8--8-|-5-5-5-5-5-5--|

E|-------------------|--------------------------|--------------|
B|-------------------|--------------------------|--------------|
G|-9-9-9-9-9-9-12-11-|--------------------------|--------------|
D|-9-9-9-9-9-9-12-11-|-12-11--10-10-10-10-10-10-|-7-7-7-7-7-7--|
A|-7-7-7-7-7-9-10--9-|-12-11--10-10-10-10-10-10-|-7-7-7-7-7-7--|
e|-------------------|-10--9---8--8--8--8--8--8-|-5-5-5-5-5-5--|

E|-------------------|--------------------------|--------------|
B|-------------------|--------------------------|--------------|
G|-9-9-9-9-9-9-12-11-|--------------------------|--------------|
D|-9-9-9-9-9-9-12-11-|-12-11--10-10-10-10-10-10-|-7-7-7-7-7-7--|
A|-7-7-7-7-7-9-10--9-|-12-11--10-10-10-10-10-10-|-7-7-7-7-7-7--|
e|-------------------|-10--9---8--8--8--8--8--8-|-5-5-5-5-5-5--|

E|-------------------|--------------------------|--------------|
B|-------------------|--------------------------|--------------|
G|-9-9-9-9-9-9-12-11-|--------------------------|--------------|
D|-9-9-9-9-9-9-12-11-|-12-11--10-10-10-10-10-10-|-7-7-7-7-7-7--|
A|-7-7-7-7-7-9-10--9-|-12-11--10-10-10-10-10-10-|-7-7-7-7-7-7--|
e|-------------------|-10--9---8--8--8--8--8--8-|-5-5-5-5-5-5--|

Then keep repeating untill the end
Komentari
Još nema komentara