Ramones

Commando

by: Armstrong

Pronađi akord!

Ne znaš kako odsvirati neki od akorda pjesmi Commando? Upiši akord u tražilicu i saznaj!

Traženi akord će se prikazati ovdje

Od istog izvođača

Trebaš ritam za ovu pjesmu? Pronađi ga ovdje
Akordi/Tabovi:
Intro/
The intro is played twice

|-----------------------------|---------------------|
|-----------------------------|---------------------|
|-----------------------------|--9-9-9-9--9-9-9-9---|
|--11-11-11-11--11-11-11-11---|--9-9-9-9--9-9-9-9---|
|--11-11-11-11--11--9--9--9---|--7-7-7-7--7-7-7-7---|
|---9--9--9--9---9--9--9--9---|---------------------|

|---------------------|---------------------|
|---------------------|---------------------|
|---------------------|---------------------|
|--7-7-7-7--7-7-7-7---|--9-9-9-9--9-9-9-9---|
|--7-7-7-7--7-7-7-7---|--9-9-9-9--9-9-9-9---|
|--5-5-5-5--5-5-5-5---|--7-7-7-7--7-7-7-7---|

Verse

|----------------|-----------------|----------------|----------------|
|----------------|-----------------|----------------|----------------|
|----------------|-----------------|----------------|----------------|
|--7---9-9-9-9---|--7---9-9-9-9----|--7---9-9-9-9---|--7---9-9-9-9---|
|--7---9-9-9-9---|--7---9-9-9-9----|--7---9-9-9-9---|--7---9-9-9-9---|
|--5---7-7-7-7---|--5---7-7-7-7----|--5---7-7-7-7---|--5---7-7-7-7---|

|----------------|----------------|
|----------------|----------------|
|--7---9-9-9-9---|--7---9-9-9-9---|
|--7---9-9-9-9---|--7---9-9-9-9---|
|--5---7-7-7-7---|--5---7-7-7-7---|
|----------------|----------------|

Play this whole thing three times into the chorus

Chorus

|-----------------------------|---------------------|
|-----------------------------|---------------------|
|-----------------------------|--9-9-9-9--9-9-9-9---|
|--11-11-11-11--11-11-11-11---|--9-9-9-9--9-9-9-9---|
|--11-11-11-11--11--9--9--9---|--7-7-7-7--7-7-7-7---|
|---9--9--9--9---9--9--9--9---|---------------------|

|---------------------|---------------------|
|---------------------|---------------------|
|---------------------|---------------------|
|--7-7-7-7--7-7-7-7---|--9-9-9-9--9-9-9-9---|
|--7-7-7-7--7-7-7-7---|--9-9-9-9--9-9-9-9---|
|--5-5-5-5--5-5-5-5---|--7-7-7-7--7-7-7-7---|

Play this four times

Then this twice

|----------------|----------------|
|----------------|----------------|
|--7---9-9-9-9---|--7---9-9-9-9---|
|--7---9-9-9-9---|--7---9-9-9-9---|
|--5---7-7-7-7---|--5---7-7-7-7---|
|----------------|----------------|

Then the verse and chorus again[code]
[/code]
Komentari
Još nema komentara