Hladno Pivo

Marihuana

by:

Pronađi akord!

Ne znaš kako odsvirati neki od akorda pjesmi Marihuana? Upiši akord u tražilicu i saznaj!

Traženi akord će se prikazati ovdje

Od istog izvođača

Pregledano 4231 puta
Pregledano 17177 puta
Pregledano 15908 puta
Pregledano 4699 puta
Pregledano 6899 puta
Trebaš ritam za ovu pjesmu? Pronađi ga ovdje
Akordi/Tabovi:
D5
i got marihuana
C5
you got marihuana

we got marihuana too

G5
are you marihuana

are you marihuana
C5
are you marihuana
G5
are you marihuana

D5
i got marihuana
C5
you got marihuana
G5           D5  G5
we got marihuana too

G5
we wanna know what you realy gotta smoke

are you marihuana
C5
we wanna know what you realy gotta smoke
G5
are you marihuana

D5
i got marihuana
C5
you got marihuana
G5           D5  G5
we got marihuana too

G5
are you marihuana

are you marihuana
C5
are you marihuana
G5
are you marihuana

D5
i got marihuana
C5
you got marihuana
G5           D5  G5
we got marihuana too

solo:

e--15-14-13---------------------------------|--15-14-13---------------------------------|
h-----------15-14-13--------13--------------|-----------15-14-13--------13--------------|
g--------------------15-12-----15-12----12--|--------------------15-12-----15-12----12--|
d------------------------------------15-----|------------------------------------15-----|

e---------------|---------------|------------------|
h--13-----------|--13-----------|--13--------------|
g-----15-12-----|-----15-12-----|-----15-12----12--|
d-----------15--|-----------15--|-----------15-----|

e--15-14-13---------------------------------|
h-----------15-14-13--------13--------------|
g--------------------15-12-----15-12----12--|
d------------------------------------15-----|

|D5 |C5 |

g--12------------------|
d-----14-12-9-8-9-7-5--|

G5
are you marihuana

are you marihuana
C5
are you marihuana
G5
are you marihuana

D5
i got marihuana
C5
you got marihuana
G5           D5  G5
we got marihuana too

D5
i got marihuana
C5
you got marihuana
G5           D5  G5
we got marihuana too

end.
Komentari
Još nema komentara