Hladno Pivo

Kad zivot ti udahnem

by:

Pronađi akord!

Ne znaš kako odsvirati neki od akorda pjesmi Kad zivot ti udahnem? Upiši akord u tražilicu i saznaj!

Traženi akord će se prikazati ovdje

Od istog izvođača

Pregledano 4201 puta
Pregledano 4143 puta
Pregledano 2842 puta
Pregledano 3925 puta
Pregledano 7569 puta
Trebaš ritam za ovu pjesmu? Pronađi ga ovdje
Akordi/Tabovi:
intro dio.
   1                   2                      3
e|-------------------|----------------------|---------------------
b|-------------------|----------------------|---------------------
G|-------------------|----------------------|---------------------
D|-------------------|--------2h4p2---------|--------2h4p2--------
A|--2-2--2-4-4--2-0--|--0--2---------4-4----|--2--4---------4-5---
E|--0-0--------------|-------------------0--|---------------------

e|------------------------
b|------------------------
G|------------------------
D|--------2h4p2-----------
A|--2--4---------4-4-2----
E|------------------------


poslije drugog puta, dio sto bas svira, moze i gitara sa malo "palm mute"
e|----------------------------------------------------------------------------
b|----------------------------------------------------------------------------
G|----------------------------------------------------------------------------
D|----------------------------------------------------------------------------
A|-4--2--0-----------------------------------------------------4-4-2-2-0-0----
E|----------4----2-2-0--2--5--0-2-2-0--2--5--0-2-2-0--2--5--0--------------44-



strofa:
e|--14--14--14--12-------
b|--14--16--14--12-------
G|--14--14--14--13-------
D|-----------------------
A|-----------------------
E|-----------------------


refren:
                     G
kad ti zivot udahnem
                           D
kad se stvoris pokraj mene
                   C
primas me u narucje
                 G D
poput prave zene


drugi dio refrena
   P.M.   P.M.   P.M.
e|-------|-------|-----------------
b|-------|-------|-----------------
G|-------|-------|-----------------
D|-------|--(7)--|--(5)--(7)-------
A|--(5)--|---5---|---3----5---(5)--
E|---3---|-------|-------------3---



break poslije refrena
e|--------------------------------------------------------------------
b|--------------------------------------------------------------------
G|-----------------------------4--6--4-----4-4------------------------
D|--4-6--4-6---6-6-6--6-6-6-6-----------6--4-4---4-4------------------
A|-----------------------------------------2-2---4-4------------------
E|-----------------------------------------------2-2------------------

e|--------------------------------------------------------------------
b|--------------------------------------------------------------------
G|-----------------------------4--6--4-----4-4---2-2---6--4-----------
D|--4-6--4-6---6-6-6--6-6-6-6-----------6--4-4---2-2---6--4-----------
A|-----------------------------------------2-2---0-0---4--2-----------
E|--------------------------------------------------------------------


                    divno slusat' umijes svojim mirnim ocima...
   P.M.
e|----------------|-----------------------------------------------------------
b|----------------|-----------------------------------------------------------
G|----------------|-----------------------------------------------------------
D|----------------|-----------------7--7-7-7-7-7------------------------------
A|--4--4-4-4-4-2--|--4--4-4-4-4-2---5--5-5-5-5-5--7--7-7-7-7-7---2--2-2-2-2-2-
E|--2--2-2-2-2-0--|--2--2-2-2-2-0-----------------5--5-5-5-5-5---0--0-0-0-0-0-



melodija iz intro dijela, prva dva takta, pa onda iz pocetka sva 4 u pozadini
zajedno sa refrenom

  akordi prva dva takta
e|-------|-------|
b|-------|-------|
G|-------|-------|
D|--7-7--|--2-2--|
A|--7-7--|--2-2--|
E|--5-5--|--0-0--|


drugi refren svira slijedece (zajedno sa intro melodijom u pozadini):
                                         P.M.    P.M.
e|-------|-------|-------|------------|-------|-------|------------|-------
b|-------|-------|-------|------------|-------|-------|------------|-------
G|-------|-------|--7-7--|------------|-------|-------|------------|-------
D|--7-7--|--2-2--|--7-7--|--7-7--2-2--|-------|-------|--7-7-------|-------
A|--7-7--|--2-2--|--5-5--|--7-7--2-2--|--7-7--|--2-2--|--5-5--2-2--|--7-7--
E|--5-5--|--0-0--|-------|--5-5--0-0--|--5-5--|--0-0--|-------0-0--|--5-5--

obla si i podatna, ljubim tvoj glatki pvc...
e|--14--14--14--12-------
b|--14--16--14--12-------
G|--14--14--14--13-------
D|-----------------------
A|-----------------------
E|-----------------------

solo prebaceno na gitaru
e|---------------------------------------------------------
b|---------------------------------------------------------
G|---14~~~--13-14----------------13-14~~~~--13-14----------
D|-----------------14~~~~--14-16------------------14~~~~---
A|---------------------------------------------------------
E|---------------------------------------------------------

ispusticu ti dusu...
e|-----------------------------
b|-----------------------------
G|-----------------------------
D|----------7~~~---------------
A|----------5~~~---7~~~--2~~---
E|--2~~~~----------5~~~--0~~---

  dva puta
e|----------------------|
b|----------------------|
G|-------7---------9----|
D|--4----7----7----9----|
A|--4----5----7----7----|
E|--2---------5---------|


  refren:
  kad ti zivot udahnem...
                              P.M.  P.M.  P.M.
e|-----|-----|-----|--------|-----|-----|--------|----------------------------
b|-----|-----|-----|--------|-----|-----|--------|---------------------------
G|-----|--9--|--7--|--------|-----|-----|--------|----6776--6776-6776-------
D|--7--|--9--|--7--|--7--2--|-----|-----|--7-----|--7----------7----------7
A|--7--|--7--|--5--|--7--2--|--7--|--2--|--5--2--|--7~~--------7~~--------7
E|--5--|-----|-----|--5--0--|--5--|--0--|-----0--|--5~~--------5~~--------5

outro
e|-------------------|----------------------|---------------------
b|-------------------|----------------------|---------------------
G|-------------------|----------------------|---------------------
D|-------------------|--------2h4p2---------|--------2h4p2--------
A|--2-2--2-4-4--2-0--|--0--2---------4-4----|--2--4---------4-5---
E|--0-0--------------|-------------------0--|---------------------

e|-------------------|---------------------
b|-------------------|---------------------
G|-------------------|---------------------
D|--4-5-7p5-4-----2--|-------4p2-----------
A|-------------5-----|--2--4-----4--2-0----
E|-------------------|---------------------
Komentari
Još nema komentara