Hladno Pivo

Dobro vece

by:

Pronađi akord!

Ne znaš kako odsvirati neki od akorda pjesmi Dobro vece? Upiši akord u tražilicu i saznaj!

Traženi akord će se prikazati ovdje

Od istog izvođača

Pregledano 6382 puta
Pregledano 10688 puta
Pregledano 15940 puta
Pregledano 45426 puta
Pregledano 7569 puta
Trebaš ritam za ovu pjesmu? Pronađi ga ovdje
Akordi/Tabovi:
Intro:
E||--------------------|----------------------|---------------|--------------|
B||--------------------|----------------------|---------------|--------------|
G||*-------------------|----------------------|---------------|--------------|
D||*-------------------|----------------------|---------------|--------------|
A||---9----------------|--7------9------11----|--5-------5----|--4------5---7|
E||--------------------|----------------------|---------------|--------------|

--------------------|---------------------|--------------------|------------||
--------------------|---------------------|--------------------|------------||
--------------------|---------------------|--------------------|-----------*||
--------------------|---------------------|--------------------|-----------*||
--4------------5----|--7------5------4----|--2------------4----|--5---4---2-||
--------------------|---------------------|--------------------|------------||


D
Tvoje lice poput uhode me prati
B
Kroz preduge uvode
A
Spoticem se nespretno o rijeci
G                B A
Koje sam pripremio

Stojim pokraj sebe i s gadjenjem
Slusam kako te obradjujem
Pricam ti o vezama, o nama
Bitangama, princezama

Refren:
D
I krene kao los refren
   B
Koji te rastuzuje
A      G
Da si ti njezni cvijet, a ja probisvijet
            B       A
Sto te ne zasluzuje

A reci zasto ne bi htjela
Imati me za prijatelja
Evo ja cu biti tvoj najbolji drug
Pa svrati na kavu ili na fuk

Tvoje lice poput uhode me prati
Kroz preduge uvode
Spoticem se nespretno o rijeci
Koje sam pripremio

Jer nikoga ne muci pitanje smijesno
Dok se rastajemo u idili
Kako cemo samo ostati nesto
Sto nikada nismo bili

(ponovo intro)

Refren:
I krene kao los refren
Koji te rastuzuje
Da si ti njezni cvijet, a ja probisvijet
Sto te ne zasluzuje

Reci zasto ne bi htjela
Imati me za prijatelja
Evo ja cu biti tvoj najbolji drug
Pa svrati na kavu ili na fuk

Na pocetku refrena onaj D i B se sviraju ovako:
E||-----------------------|-------------------------|
B||-----------------------|-------------------------|
G||--7----7--7----7--9----|--11----11--9----9--7----|
D||--7----7--7----7-------|-------------------------|
A||--5----5--5----5--7----|--9-----9---7----7--5----|
E||-----------------------|-------------------------|
                                                 
-----------------------|-----------------------||
-----------------------|-----------------------||
--4----4--4----4--6----|--7----7--6----6--4----||
--4----4--4----4-------|-----------------------||
--2----2--2----2--4----|--5----5--4----4--2----||
-----------------------|-----------------------||
Komentari

nadrealist kaže:

jel ovo stvarno dobro vece od hladnog piva? hehe

11-05-2009 20:11

crnisokol kaže:

dobri prijatelji je ovo..kolko ja pratim hladno pivo

11-05-2009 21:12