Hladno Pivo

Cirkus

by:

Pronađi akord!

Ne znaš kako odsvirati neki od akorda pjesmi Cirkus? Upiši akord u tražilicu i saznaj!

Traženi akord će se prikazati ovdje

Od istog izvođača

Pregledano 3859 puta
Pregledano 8290 puta
Pregledano 13536 puta
Pregledano 16412 puta
Pregledano 15906 puta
Trebaš ritam za ovu pjesmu? Pronađi ga ovdje
Akordi/Tabovi:
------------------------------------------------------------------------
------------------------------------------------------------------------
------------------------------------------------------------------------
------------------------------------------------------------------------
--------3-6-7-8---------3-6-7-8---------3-6-7-8---------3-6-7-8---------
3-6-7-8---------3-6-7-8---------3-6-7-8---------3-6-7-8----------3--6--7

--------------------------------------------------------
--------------------------------------------------------
--------------------------------------------------------
5-5-5-5--8-5--5-5-5-5--8-5--5-5-5-5--8-5--3-3-3-3--2-5--
5-5-5-5--8-5--5-5-5-5--8-5--5-5-5-5--8-5--3-3-3-3--2-5--
3-3-3-3--6-3--3-3-3-3--6-3--3-3-3-3--6-3--1-1-1-1--0-3--

REFREN:
RIFF  G   A G 
      F   G F 
      E   F G
      E   F G

-------------------------------------------------------------------
-------------------------------------------------------------------
-------------------------------------------------------------------
-------------------------------------------------------------------
-------------------------------------------------------------------
8-7-6-3--3-2-1-0--8-7-6-3--3-2-1-0--8-7-6-3--3-2-1-0--8-7-6-3--3~--

--------------------------------------------------------------------------
--------------------------------------------------------------------------
--------------------------------------------------------------------------
--------------------------------------------------------------------------
--------3-6-7-8---------3-6-7-8---------3-6-7-8---------3-6-7-8-----------
3-6-7-8---------3-6-7-8---------3-6-7-8---------3-6-7-8----------3--6--7--

                                                                             X3
8^8^8^8^8^8^8^8^11^11^11^11^6^6^6^6^6^6^669^9^9^4^4^4^^4^4^4^4^4^6^6^6^6------
-------------------------------------------------------------------------6-4-6
------------------------------------------------------------------------------
------------------------------------------------------------------------------
------------------------------------------------------------------------------
------------------------------------------------------------------------------
Komentari
Još nema komentara