Uriah Heep

Bird Of Prey

by:

Pronađi akord!

Ne znaš kako odsvirati neki od akorda pjesmi Bird Of Prey? Upiši akord u tražilicu i saznaj!

Traženi akord će se prikazati ovdje

Od istog izvođača

Pregledano 1879 puta
Pregledano 1966 puta
Pregledano 2362 puta
Pregledano 103 puta
Pregledano 3372 puta
Trebaš ritam za ovu pjesmu? Pronađi ga ovdje
Akordi/Tabovi:
Main Riff
E--------------------------------------|--------------------------|
B--------------------------------------|--------------------------|
G--------------------------------------|-------------6-5----------|
D-------3-3-3-3-3-3-3-3--6-8-6---|--3-3-3-3-3-3-3-3--4-3----------|
A-------3-3-3-3-3-3-3-3--6-8-6---|--3-3-3-3-3-3-3-3---------------|
E--------------------------------|--------------------------------|



Intro Riff

E--------------------------------------|
B--------------------------------------|
G--------------------------------------|
D-----------3-5-6-5-8-6-5-6------------|
A-----------3-5-6-5-8-6-5-6------------|
E--------------------------------------|

Verse
Verse Riff
E--------------------------------------|
B--------------------------------------|
G--------------------------------------|  2 times
D-----------3-3-3-3-3-3-3-3------------|
A-----------3-3-3-3-3-3-3-3------------|
E--------------------------------------|

+ Main Riff


Bridge

E--------------------------------------|---------------------------------|
B--------------------------------------|---------------------------------|
G--------------------------------------|---------------------------------|
D--------------------------------------|------2-3-4-5-6-7----------------|
A--------3-4-5-6-7-8-------------------|---------------------------------|
E--------------------------------------|---------------------------------|

Chorus Riff
E--------------------------------------|
B--------------------------------------|
G-----9b---7b---12b----10b-------------|
D--------------------------------------|
A--------------------------------------|
E--------------------------------------|
Outro Riff

E--------------------------------------|----------------------------------|
B--------------------------------------|----------------------------------|
G--------------------------------------|---5-5-3-4-5-5-8-7-5-5-3-4-5------|
D-5-5-3-4-5-5-8-7-5-5-3-4-5------------|---3-3-1-2-3-3-6-5-3-3-1-2-3------|
A-3-3-1-2-3-3-6-5-3-3-1-2-3------------|----------------------------------|
E--------------------------------------|----------------------------------|



The Song:

2x Main Riff
2x Intro Riff
2x Main Riff
4xVerse (2x Verse Riff + Main Riff)
1x Bridge
6x Chorus Riff
2xMai Riff
4x Verse
1x Bridge
6x Chorus Riff
2x Main Riff
Outro Riff Until End
Komentari
Još nema komentara