Static-X

Otsegolectric

by:

Pronađi akord!

Ne znaš kako odsvirati neki od akorda pjesmi Otsegolectric? Upiši akord u tražilicu i saznaj!

Traženi akord će se prikazati ovdje

Od istog izvođača

Pregledano 1421 puta
Pregledano 1751 puta
Pregledano 1604 puta
Pregledano 1444 puta
Pregledano 1536 puta
Trebaš ritam za ovu pjesmu? Pronađi ga ovdje
Akordi/Tabovi:
Tuning: Bb F Bb Eb G C

Intro/Chorus
|---------------------------------------------------------------------------|
|---------------------------------------------------------------------------|
|---------------------------------------------------------------------------|
|---------------------------------------------------------------------------|
|---------------------------------------------------------------------------|
|-0-0-0-0-0-8-0-0-0-0-5-0-0-0-0-7-0-0-0-0-0-0-0-0-0-0-8-0-0-0-0-10-0-0-0-0-7|

|-----------|
|-----------|
|-----------| x2
|-----------|
|-----------|
|-0-0-0-0-0-|

Verse (gtr. 1) Verse (gtr. 2)
|-------------|-7-7-7-----7-7-8-8-8-----8-8-10-10-10-----10-10-8-8-8-----8-|
|-------------|------5-5-5---------6-6-6------------8-8-8-----------6-6-6--|
|-------------|------------------------------------------------------------|
|---2---2-----|------------------------------------------------------------|
|---2---2-----|------------------------------------------------------------|
|---2---2-----|------------------------------------------------------------|

Interlude
|--------------------------------------------|---------|
|--------------------------------------------|---------|
|--------------------------------------------|---------|
|-5-----------3-0-3-----------3-0-3----------|-3-0-3-0-|
|-5-----------3-0-3-----------3-0-3----------|-3-0-3-0-|
|-5-----------3-0-3--0--0--0--3-0-3--0--0--0-|-3-0-3-0-|

Rhythm Under Solo
|-----------------------------------|
|-----------------------------------|
|-----------------------------------|
|-2--2----2--2----2--2----2--2----3-| x2
|-2--2----2--2----2--2----2--2----3-|
|-2--2----2--2----2--2----2--2----3-|
Komentari
Još nema komentara