Static-X

I'm The One

by:

Pronađi akord!

Ne znaš kako odsvirati neki od akorda pjesmi I'm The One? Upiši akord u tražilicu i saznaj!

Traženi akord će se prikazati ovdje

Od istog izvođača

Pregledano 1676 puta
Pregledano 1420 puta
Pregledano 1446 puta
Pregledano 1590 puta
Pregledano 1605 puta
Trebaš ritam za ovu pjesmu? Pronađi ga ovdje
Akordi/Tabovi:
Tuning (A#-F-A#-D#-G-C)

Intro
|---------------------------------------|
|---------------------------------------|
|---------------------------------------|
|----0-0-----0-0-----0-0-----0-0-1-3----|
|----0-0-----0-0-----0-0-----0-0-1-3----|
|----0-0-3*--0-0-3*--0-0-3*--0-0-1-3----|

Verse
|-------------------------------|
|-------------------------------|
|-------------------------------|
|----0-0--0-0--0-0--0-0--1-3----|
|----0-0--0-0--0-0--0-0--1-3----|
|----0-0--0-0--0-0--0-0--1-3----|

Pre Chorus
|-----------------------------------|
|-----------------------------------|
|-----------------------------------|
|----0-0-----0-0-----0-0-----0-0----|
|----0-0-----0-0-----0-0-----0-0----|
|----0-0-3*--0-0-3*--0-0-3*--0-0----|

Chorus
|--------------------------------------------------------------------------|
|--------------------------------------------------------------------------|
|----3-3-3-3-3-3-3-3-------------------3-3-3-3-3-3-3-3---------------------|
|----3-3-3-3-3-3-3-3--0-0-0-0-0-0-0-0--3-3-3-3-3-3-3-3--0-0-0-0-0-0-0-0----|
|----1-1-1-1-1-1-1-1--0-0-0-0-0-0-0-0--1-1-1-1-1-1-1-1--0-0-0-0-0-0-0-0----|
|---------------------0-0-0-0-0-0-0-0-------------------0-0-0-0-0-0-0-0----|

|--------------------------------------------------------------------------|
|--------------------------------------------------------------------------|
|----3-3-3-3-3-3-3-3-------------------3-3-3-3-3-3-3-3--5-5-5-5-5-5-5-5----|
|----3-3-3-3-3-3-3-3--0-0-0-0-0-0-0-0--3-3-3-3-3-3-3-3--5-5-5-5-5-5-5-5----|
|----1-1-1-1-1-1-1-1--0-0-0-0-0-0-0-0--1-1-1-1-1-1-1-1--3-3-3-3-3-3-3-3----|
|---------------------0-0-0-0-0-0-0-0--------------------------------------|

Bridge
|--------------------------------------------------------------------------|
|--------------------------------------------------------------------------|
|----------------------------------5-5-5-5-5-5-5-5--7-7-7-7-7-7-7-7--------|
|----0-0-----0-0-----0-0-----0-0---5-5-5-5-5-5-5-5--7-7-7-7-7-7-7-7--------|
|----0-0-----0-0-----0-0-----0-0---3-3-3-3-3-3-3-3--5-5-5-5-5-5-5-5--------|
|----0-0-3*--0-0-3*--0-0-3*--0-0-------------------------------------------|
Komentari
Još nema komentara