Static-X

Bled For Days

by:

Pronađi akord!

Ne znaš kako odsvirati neki od akorda pjesmi Bled For Days? Upiši akord u tražilicu i saznaj!

Traženi akord će se prikazati ovdje

Od istog izvođača

Pregledano 1514 puta
Pregledano 1845 puta
Pregledano 1482 puta
Pregledano 1527 puta
Pregledano 1756 puta
Trebaš ritam za ovu pjesmu? Pronađi ga ovdje
Akordi/Tabovi:
tuning is drop c   (cgcfad)

intro:         pre-verse
D|----------|----------------|
A|----------|----------------|
F|----------|----------------|                         
C|-2-2-0-5-2|-2-3--2-3--2-3-2|
G|-2-2-0-5-2|-2-3--2-3--2-3-2|
C|-2-2-0-5-2|-2-3--2-3--2-3-2|

verse:
D|----------------|
A|----------------|
F|----------------|
C|-3-0---3-0---3-0|
G|-3-0---3-0---3-0|
C|-3-0---3-0---3-0|

chorus:
D|--------|
A|--------|
F|-4---5--|
C|-2---3--|
G|--------|
C|--------|
Komentari
Još nema komentara