Scorpions

The Zoo

by:

Pronađi akord!

Ne znaš kako odsvirati neki od akorda pjesmi The Zoo? Upiši akord u tražilicu i saznaj!

Traženi akord će se prikazati ovdje

Od istog izvođača

Pregledano 2372 puta
Pregledano 2505 puta
Pregledano 2603 puta
Pregledano 2508 puta
Pregledano 10205 puta
Trebaš ritam za ovu pjesmu? Pronađi ga ovdje
Akordi/Tabovi:
intro (repeat section twice)
---------------------------------
---------------------------------
-9-9-9-9-9-9-7-9----5-4-5--9-7---
-9-9-9-9-9-9-7-9----5-4-5--9-7---
-7-7-7-7-7-7-5-7----3-2-3--7-5---
---------------------------------

---------------------------------
---------------------------------
-9-9-9-9-9-9-7-9---5-4-5--7------
-9-9-9-9-9-9-7-9---5-4-5--7------
-7-7-7-7-7-7-5-7---3-2-3--5------
---------------------------------

main riff (continue pattern)
---------------------------------
---------------------------------
---------------------------------
---------------------------------
---------------------------------
-0--0-0--0-0--0-0--0-0--0-0--0-0-

-------------------------------------------------------
-------------------------------------------------------
-14-12-------------14-12-------------14-12-11-9-11-12--
-14-12-------------14-12-------------14-12-11-9-11-12--
-12-10-------------12-10-------------12-10--9-7--9-10--
-------0-0--0-0--0-------0-0--0-0--0-------------------

-----------------------------------------------------------------
-----------------------------------------------------------------
-----------14-12-------------14-12-------------14-12-11-9-11-9---
-----------14-12-------------14-12-------------14-12-11-9-11-9---
-----------12-10-------------12-10-------------12-10--9-7--9-7---
-0-0-0-0-0-------0-0--0-0--0-------0-0--0-0--0-------------------

   
verse     so many worlds away...
    on streets we call...
----------------------------------------------------------------
----------------------------------------------------------------
----------------------------------------------------------------
----------------------------------------------------------------
----------------------------------------------------------------
-0--0-0--0-0--0-0--0-0--0-0--0-0--3-3--3-3--3-3--3-3--0-0--0-0--

chorus   We eat the night...
-------------------------------------------------
-------------------------------------------------
------7---------5---------7----------------------
-5----7----2----5----5----7----2----x-2-x-2-x-2--
-5----5----2----3----5----5----2----x-2-x-2-x-2--
-3---------0---------3---------0----x-0-x-0-x-0--

hungry eyes...
--------------------------------------------------
--------------------------------------------------
------7---------5----4-----7----------------------
-5----7----2----5----4-----7-----2----------------
-5----5----2----3----2-----5-----2----------------
-3---------0---------------------0----------------

interlude (play four times)
-------------------------------------------------
-------------------------------------------------
-2-2-2-2-2-2-------------------------------------
-2-2-2-2-2-2-------------------------------------
-0-0-0-0-0-0--3v---------------------------------
-------------------------------------------------

rhythm under solo
-------------------------------------------------------
-------------------------------------------------------
-14-12-------------14-12-------------14-12-11-9-11-12--
-14-12-------------14-12-------------14-12-11-9-11-12--
-12-10-------------12-10-------------12-10--9-7--9-10--
-------0-0--0-0--0-------0-0--0-0--0-------------------

-----------------------------------------------------------------
-----------------------------------------------------------------
-----------14-12-------------14-12-------------14-12-11-9-11-9---
-----------14-12-------------14-12-------------14-12-11-9-11-9---
-----------12-10-------------12-10-------------12-10--9-7--9-7---
-0-0-0-0-0-------0-0--0-0--0-------0-0--0-0--0-------------------
Komentari
Još nema komentara