Scorpions

Rock You Like A Hurricane

by:

Pronađi akord!

Ne znaš kako odsvirati neki od akorda pjesmi Rock You Like A Hurricane? Upiši akord u tražilicu i saznaj!

Traženi akord će se prikazati ovdje

Od istog izvođača

Pregledano 2603 puta
Pregledano 5168 puta
Pregledano 17383 puta
Pregledano 1582 puta
Pregledano 1394 puta
Trebaš ritam za ovu pjesmu? Pronađi ga ovdje
Akordi/Tabovi:
Intro
|-----------------------|
|-----------------------|
|-----------------------|   X4
|-----------------------|
|-----------------------|
|-0-0-0--3-3--5-5--8--10|
=========================

Or you can try it the better, real way!
Intro

   E5    G5   A5  C5  D5
|------------------------|
|------------------------|
|-9-9-9------------5--7-7|  X4
|-9-9-9--5-5--7-7--5--7-7|
|-7-7-7--5-5--7-7--3--5-5|
|--------3-3--5-5--------|
==========================

Now my favorite part.....intro solo!
|000000000000000000000000000000000-0-0-0-0-0-0-0-0-0-0-0-0-0-0-0-0-0-0-0-0-|
|555555555555555555555555555555555-1212121212121212121212121212121212121212|
|--------------------------------------------------------------------------|
|--------------------------------------------------------------------------|
|--------------------------------------------------------------------------|
|--------------------------------------------------------------------------|

Play that the way you want to ^

Pre                        Intro Solo
|--------------------------|----------------15br-14h15p14p12----------15-----|
|-11h12p11p9---------------|-------15----------------------15-15h17----15b17-|
|-------------12p11p9------|-14b16----14b16----------------------------------|
|---------------------12p0-|-------------------------------------------------|
|--------------------------|-------------------------------------------------|
|--------------------------|-------------------------------------------------|

cont.
|---17b-15-17-15-20b-20b-20b-20b-17-20-19-17-15-14-17-15-14|-12-----|
|----------------------------------------------------------|---15b17|
|----------------------------------------------------------|--------|  X6
|----------------------------------------------------------|--------|
|----------------------------------------------------------|--------|
|----------------------------------------------------------|--------|

Solo out
|12-15-12---------------------------------------|
|---------15-12---------------------------------|
|---------------15-14-12------------------------|
|------------------------14-12------------------|
|------------------------------14-13-12---------|
|---------------------------------------15-12/10|

Now for the main solo!

|---------17^-17^---|---------------------------|
|-17^-17^--------14~|-17p15-17p15-17\p15-17\p15-|do
|-------------------|---------------------------|this
|-------------------|---------------------------|a few
|-------------------|---------------------------|times
|-------------------|---------------------------|

|------------------------------|
|-13h16p13h16-----13h16p13-----|
|-------------15b----------15/-|
|------------------------------|
|------------------------------|
|------------------------------|

|---------------------------------------------------1515-18bf-|
|-----------------------------------------1515-1717-----------|
|----------------1212-1414-1616-1414-1616---------------------|
|------1212-1414----------------------------------------------|
|-1414--------------------------------------------------------|
|-------------------------------------------------------------|

-------------------------|----------------|------------|
-------------------------|-15br(15)p13----|------------|
-17br--15-13-15br-p13----|-15br(15)p13----|-0-2-4-5-7b-|
----------------------15-|-------------15-|------------|
-------------------------|----------------|------------|
-------------------------|----------------|------------|
                                 X3


--------------------------------------------------------|
---5-8p5---7-10p7----9-12-15p12----14-17p14----16-19p16-|
-/7-----/9-------/11-----------/16---------/18----------|
--------------------------------------------------------|
--------------------------------------------------------|
--------------------------------------------------------|

---------------------------------22----------------------------------|
-----17-20p-17----19-22p-19-22bf----22bf-22bf-r----------------------|
-/19---------/21--------------------------------------------------19-|
---------------------------------------------------------19-21-22----|
------------------------------------------------19-21-22-------------|
---------------------------------------------------------------------|

    X3
--22bf-r-|----22-20-19----20p19----19-20-19h20p19-------|
---------|-21----------22-------22----------------22-20-|
---------|----------------------------------------------|
---------|----------------------------------------------|
---------|----------------------------------------------|
---------|----------------------------------------------|

-------------------------------------------------------------|
-------------------------------------------------------------|
-1717p15--------15-17p15-17p15-------15-17-17p151715---------|
--------17-1517----------------17-15-----------------1717p15-|
-------------------------------------------------------------|
-------------------------------------------------------------|

--------------------------------|
-----------------------------7b-|
---0-2-2p0--2p0---0-2-4-5-7--7b-|    End of solo!
-2--------------2---------------|
--------------------------------|
--------------------------------|

|/  slide up
|\  slide down
|h  hammer-on
|p  pull-off
|~  vibrato
|pr pre-bend
|x mute note
Komentari
Još nema komentara