Misfits

Them

by:

Pronađi akord!

Ne znaš kako odsvirati neki od akorda pjesmi Them? Upiši akord u tražilicu i saznaj!

Traženi akord će se prikazati ovdje

Od istog izvođača

Pregledano 2108 puta
Pregledano 2171 puta
Pregledano 2060 puta
Pregledano 2645 puta
Pregledano 1918 puta
Trebaš ritam za ovu pjesmu? Pronađi ga ovdje
Akordi/Tabovi:
Tuning: 1/2 step down

(main riff)
eb|---------------------------------------------------------------------------|
Bb|---------------------------------------------------------------------------|
Gb|---------------------------------------------------------------------------|
Db|---------------------------------------------------------------------------|
Ab|------5---8-7---5---------5---8-7---5---------5---8-7---5--3-3-3-3---------|
Eb|--0-0-3-0-6-5-0-3-----0-0-3-0-6-5-0-3-----0-0-3-0-6-5-0-3--1-1-1-1---------|
(PM) . . . . . . . .     . . . . . . . .     . . . . . . . . 

(riff 2)
eb|---------------------------------------------------------------------------|
Bb|---------------------------------------------------------------------------|
Gb|---------------------------------------------------------------------------|
Db|--7-----7-----7------------------------------------------------------------|
Ab|--5--7--5--7--5--7----5-5-5-5-5-5-5-5-5------------------------------------|
Eb|-----5-----5-----5----3-3-3-3-3-3-3-3-3------------------------------------|
(PM)                     . . . . . . . . .

(riff 2 cont.)
eb|---------------------------------------------------------------------------|
Bb|---------------------------------------------------------------------------|
Gb|---------------------------------------------------------------------------|
Db|--7-----7-----7------------------------------------------------------------|
Ab|--5--7--5--7--5--7----9-9-9-9-9-9-9-9-9---7----5---------------------------|
Eb|-----5-----5-----5----7-7-7-7-7-7-7-7-7---5----3---------------------------|
(PM)                     . . . . . . . . .

(riff 3)
eb|---------------------------------------------------------------------------|
Bb|---------------------------------------------------------------------------|
Gb|---------------------------------------------------------------------------|
Db|--9--9-9-9-9---------------------------9-8-9-8-----------------------------|
Ab|--7--7-7-7-7--9--9-9-9-9--7--7-7-7-7---7-6-7-6-----------------------------|
Eb|--------------7--7-7-7-7--5--5-5-5-5---------------------------------------|

(riff 4)
eb|---------------------------------------------------------------------------|
Bb|---------------------------------------------------------------------------|
Gb|---------------------------------------------------------------------------|
Db|--9--9-9-9-9---------------------------------------------------------------|
Ab|--7--7-7-7-7--9--9-9-9-9--7--7-7-7-7--9--9-9-9-9---------------------------|
Eb|--------------7--7-7-7-7--5--5-5-5-5--7--7-7-7-7---------------------------|

(riff 5)
eb|---------------------------------------------------------------------------|
Bb|---------------------------------------------------------------------------|
Gb|---------------------------------------------------------------------------|
Db|--9--9-9-9-9---------------------------------------------------------------|
Ab|--7--7-7-7-7--9--9-9-9-9--7--7-7-7-7--9-9-9-9--7-5-------------------------|
Eb|--------------7--7-7-7-7--5--5-5-5-5--7-7-7-7--5-3-------------------------|
(PM)                                     . . . .     


order:
main riff      4x
riff 2         1x
main riff      4x
riff 2        1x
riff 3         1x
riff 4         1x
riff 3         1x
riff 5         1x
main riff      4x
riff 3         1x
riff 4         1x
riff 3         1x
riff 4         1x
riff 3         1x
riff 4         1x
riff 5         1x
main riff      4x

| PM Palm mute
| /  slide up
| \  slide down
| h  hammer-on
| p  pull-off
| ~  vibrato
| +  harmonic
| x  Mute note
Komentari
Još nema komentara