Misfits

Teenagers From Mars

by:

Pronađi akord!

Ne znaš kako odsvirati neki od akorda pjesmi Teenagers From Mars? Upiši akord u tražilicu i saznaj!

Traženi akord će se prikazati ovdje

Od istog izvođača

Pregledano 2276 puta
Pregledano 2038 puta
Pregledano 2021 puta
Pregledano 2036 puta
Pregledano 2507 puta
Trebaš ritam za ovu pjesmu? Pronađi ga ovdje
Akordi/Tabovi:
MAIN RIFF (used as intro and verses)
|------------------------------|
|------------------------------|
|------------------------------|                                       
|--5--5--5-5-5-6--6-6-6-6-6-3--|
|--5--5--5-5-5-6--6-6-6-6-6-3--|
|--3--3--3-3-3-4--4-4-4-4-4-1--|

PRECHORUS (4 times)
|----------------------------------|
|----------------------------------|
|--6-6-6-6-6-6-6-6-----------------|
|--6-6-6-6-6-6-6-6-6-6-6-6-6-6-6-6-|
|--4-4-4-4-4-4-4-4-6-6-6-6-6-6-6-6-|
|------------------4-4-4-4-4-4-4-4-|


CHORUS_______________________3x_|_then_______________________3x_|
|-------------------------------|-------------------------------|
|-------------------------------|-------------------------------|
|-4--4--4-4-4-------------------|---------------9--9--9-9-9-9---|
|-4--4--4-4-4---2--2--2-2-2-2---|-8--8--8-8-8---9--9--9-9-9-9---|
|-2--2--2-2-2---2--2--2-2-2-2---|-8--8--8-8-8---7--7--7-7-7-7---|
|---------------0--0--0-0-0-0---|-6--6--6-6-6-------------------|

REPEAT INTRO/VERSE
REPEAT PRECHORUS
REPEAT CHORUS
REPEAT INTRO/VERSE
REPEAT PRECHORUS
REPEAT CHORUS

OUTRO________________________3x_|_then________________until end_|
|-------------------------------|-------------------------------|
|-------------------------------|-------------------------------|
|-4--4--4-4-4-------------------|---------------4--4--4-4-4-4---|
|-4--4--4-4-4---2--2--2-2-2-2---|-7--7--7-7-7---4--4--4-4-4-4---|
|-2--2--2-2-2---2--2--2-2-2-2---|-7--7--7-7-7---2--2--2-2-2-2---|
|---------------0--0--0-0-0-0---|-5--5--5-5-5-------------------|
Komentari
Još nema komentara