Misfits

Scream

by:

Pronađi akord!

Ne znaš kako odsvirati neki od akorda pjesmi Scream? Upiši akord u tražilicu i saznaj!

Traženi akord će se prikazati ovdje

Od istog izvođača

Pregledano 1909 puta
Pregledano 2036 puta
Pregledano 2072 puta
Pregledano 2080 puta
Pregledano 1861 puta
Trebaš ritam za ovu pjesmu? Pronađi ga ovdje
Akordi/Tabovi:
INTRO:
E|-----------------------------------------------------------|
--|----------------------------------------------------------|
--|----------------------------------------------------------|
--|----------------------------------------------------------|
--|-1/8---3---*4--1/8----3---*4/8----3---*4---1/8----*4---3--|
E|-----------------------------------------------------------|

E|-------------------------------------------------------------------------|
--|------------------------------------------------------------------------|
--|------------------------------------------------------------------------|
--|--8---6---4-------8---2---4-------8---2---11-----8---2---4------4/11/4--|
--|--8---6---4-------8---2---4-------8---2---11-----8---2---4------4/11/4--|
E|--6---4---2-------6---4---2-------6---4----9------6---4---2------2/-9/2--|

VERSE #1:

E|---------------------------|PART-2----------------------------------------------|
--|---------------------------|---------------------------------------------------|
--|---------------------------|---------------------------------------------------|
--|--6---8---4---11---6---|8---4---11---6-----------------------------------------|
--|--6---8---4---11---6---|8---4---11---6-----------------------------------------|
E|--4---6---2----9----4---|6---2----9---4-----------------------------------------|

CHORUS #1:

E|-----------------------------|
--|----------------------------|
--|----------------------------|
--|--8---6---4------8---6---4--|
--|--8---6---4------8---6---4--|
E|--6---4---2------6---4---2---|

VERSE #2:

E|---------------------------|PART-2----------------------------------------------|
--|---------------------------|---------------------------------------------------|
--|---------------------------|---------------------------------------------------|
--|--6---8---4---11---6---|8---4---11---6-----------------------------------------|
--|--6---8---4---11---6---|8---4---11---6-----------------------------------------|
E|--4---6---2----9----4---|6---2----9---4-----------------------------------------|

CHORUS #2:

E|-----------------------------------------------------------|
--|----------------------------------------------------------|
--|----------------------------------------------------------|
--|--8---6---4------8---6---4------8---10---11---8---6---4---|
--|--8---6---4------8---6---4------8---10---11---8---6---4---|
E|--6---4---2------6---4---2------6----8-----9----6---4---2--|

E|--------|
--|-------|
--|-------|
--|--[6]--|
--|--[6]--|
E|--[4]---|

VERSE #3:

E|-----------------------------------------|
--|----------------------------------------|
--|----------------------------------------|
--|8---4---11---6--------------------------|
--|8---4---11---6--------------------------|
E|6---2----9---4---------------------------|

E|----------------------------------------------------|
--|---------------------------------------------------|
--|---------------------------------------------------|
--|--8---8/7/8/7--------------------------------------|
--|--8---8/7/8/7--------------------------------------|
E|--6---6/5/6/5---------------------------------------|

CHORUS #3:

E|-----------------------------------------------------------|
--|----------------------------------------------------------|
--|----------------------------------------------------------|
--|--8---6---4------8---6---4------8---10---11---8---6---4---|
--|--8---6---4------8---6---4------8---10---11---8---6---4---|
E|--6---4---2------6---4---2------6----8-----9----6---4---2--|

E|----------------------------------------------------|
--|---------------------------------------------------|
--|---------------------------------------------------|
--|--8---8/7/8/7--------------------------------------|
--|--8---8/7/8/7--------------------------------------|
E|--6---6/5/6/5---------------------------------------|
Komentari
Još nema komentara