Misfits

Only Make Believe

by:

Pronađi akord!

Ne znaš kako odsvirati neki od akorda pjesmi Only Make Believe? Upiši akord u tražilicu i saznaj!

Traženi akord će se prikazati ovdje

Od istog izvođača

Pregledano 2022 puta
Pregledano 2038 puta
Pregledano 1856 puta
Pregledano 2133 puta
Pregledano 2277 puta
Trebaš ritam za ovu pjesmu? Pronađi ga ovdje
Akordi/Tabovi:
Tuning: 1/2 step down

(intro)
eb|---------------------------------------------------------------------------|
Bb|---------------------------------------------------------------------------|
Gb|---------------------------------------------------------------------------|
Db|--10:---7:---3:---5:-----------------------------10-10-10-10-10-10-10-10-10|
Ab|--10:---7:---3:---5:--10-10-10-10-10-10-10-10-10-8--8--8--8--8--8--8--8--8-|
Eb|--8::---5:---1:---3:--8--8--8--8--8--8--8--8--8----------------------------|

(intro cont.)
eb|----------------------------------|
Bb|----------------------------------|
Gb|----------------------------------|
Db|--12-12-12-12-12-12-12-12-12-12---|
Ab|--10-10-10-10-10-10-10-10-10-10---|
Eb|----------------------------------|

(verse)3x's
eb|---------------------------------------------------------------------------|
Bb|---------------------------------------------------------------------------|
Gb|-------------------------------------------10-------------12---------------|
Db|--10-----------------------7---------------10-10-10-10-10-12-12-12-12-12---|
Ab|--10-10-10-10-10-10-10-10--7-7-7-7-7-7-7-7-8--8--8--8--8--10-10-10-10-10---|
Eb|--8--8--8--8--8--8--8--8---5-5-5-5-5-5-5-5---------------------------------|

eb|---------------------------------------------------------------------------|
Bb|---------------------------------------------------------------------------|
Gb|--10-------------12-------------------------------10-----------------------|
Db|--10-10-10-10-10-12-12-12-12-12-10----------------10-10-10-10-10-----------|
Ab|--8--8--8--8--8--10-10-10-10-10-10-10-10-10-10-10-8--8--8--8--8------------|
Eb|--------------------------------8--8--8--8--8--8---------------------------|

eb|---------------------------------------------------------------------------|
Bb|---------------------------------------------------------------------------|
Gb|--12-------------10-------------------------------10-----------------------|
Db|--12-12-12-12-12-10-10-10-10-10-10----------------10-10-10-10-10-----------|
Ab|--10-10-10-10-10-8--8--8--8--8--10-10-10-10-10-10-8--8--8--8--8------------|
Eb|--------------------------------8--8--8--8--8--8---------------------------|

eb|---------------------------------------------------------------------------|
Bb|---------------------------------------------------------------------------|
Gb|---------------------------------------------------------------------------|
Db|--10-----------------------------------------------------------------------|
Ab|--10-10-10-10-10-10---5-5-5-5-5-5-5-5--------------------------------------|
Eb|--8--8--8--8--8--8----3-3-3-3-3-3-3-3--------------------------------------|

(outro)
eb|-----------------|
Bb|-----------------|
Gb|-----------------|
Db|--10:---10-------|
Ab|--10:---10-------|
Eb|--8::---8--------|

| /  slide up
| \  slide down
| h  hammer-on
| p  pull-off
| ~  vibrato
| +  harmonic
| x  Mute note
Komentari
Još nema komentara