Misfits

Last Caress

by:

Pronađi akord!

Ne znaš kako odsvirati neki od akorda pjesmi Last Caress? Upiši akord u tražilicu i saznaj!

Traženi akord će se prikazati ovdje

Od istog izvođača

Pregledano 2307 puta
Pregledano 5898 puta
Pregledano 2114 puta
Pregledano 1850 puta
Pregledano 1883 puta
Trebaš ritam za ovu pjesmu? Pronađi ga ovdje
Akordi/Tabovi:
Intro

--------------------------------------------------------------------------
--------------------------------------------------------------------------
--------------------------------------------------------------------------
-----5-------------------5---------10--12---10------7---------------------
-----3------3----5-------3---------8---10---8-------5---------------------
------------1----3--------------------------------------------------------

Verse part 1 (x4)

--------------------------------------------------------------------------
--------------------------------------------------------------------------
--------------------------------------------------------------------------
----5-5-5-5-5-5-5-5-5-5-5-5-5------10-----12------------------------------
----3-3-3-3-3-3-3-3-3-3-3-3-3-------8-----10------------------------------
--------------------------------------------------------------------------

On the fourth time play (verse part II)


--------------------------------------------------------------------------
--------------------------------------------------------------------------
--------------------------------------------------------------------------
----5-5-5-5-5-5-5-5-5-5-5-5-5------10-----12------------------------------
----3-3-3-3-3-3-3-3-3-3-3-3-3-------8-----10------------------------------
--------------------------------------------------------------------------

-------------------------------------------------------------------------------
-------------------------------------------------------------------------------
-------------------------------------------------------------------------------
--10-10-10-10-10-10-10-10---7-7-7-7-7-7-7-7----5-5-5-5-5-5-5-5-5-5-5-5-5-5-5---
--8--8--8--8--8--8--8--8----5-5-5-5-5-5-5-5----3-3-3-3-3-3-3-3-3-3-3-3-3-3-3---
-------------------------------------------------------------------------------


Chorus

-------------------------------------------------------------
-------------------------------------------------------------
-10-10-10-10-10-10-10-10---7-7-7-7-7-7-7-7---5-5-5---9-9-9---
-10-10-10-10-10-10-10-10---7-7-7-7-7-7-7-7---5-5-5---9-9-9---
-8--8--8--8--8--8--8--8----5-5-5-5-5-5-5-5---3-3-3---7-7-7---
-------------------------------------------------------------

----------------------------------------------
----------------------------------------------
-------------------10-10-10-10--7-7-7-7-------
-7-7-7-7-7-7-7-7---10-10-10-10--7-7-7-7-------
-7-7-7-7-7-7-7-7---8--8--8--8---5-5-5-5-------
-5-5-5-5-5-5-5-5------------------------------


After Chorus (x2)
--------------------------------------------------------------------------
--------------------------------------------------------------------------
--------------------------------------------------------------------------
-----5-5-5-5-5-5-5-5-5-5-5-5----10-10-10--12--12-12-----------------------
-----3-3-3-3-3-3-3-3-3-3-3-3-----8--8--8--10--10-10-----------------------
--------------------------------------------------------------------------

then play:

verse part 1 (x2)
verse part II
Chorus
verse
chorus (on this chorus, he stops playing after the -7- on the E string)
                                                   -7-
                                                   -5-

the last part is the after Chorus (x8
Komentari
Još nema komentara