Misfits

1000000 Years Bc

by:

Pronađi akord!

Ne znaš kako odsvirati neki od akorda pjesmi 1000000 Years Bc? Upiši akord u tražilicu i saznaj!

Traženi akord će se prikazati ovdje

Od istog izvođača

Pregledano 2019 puta
Pregledano 1909 puta
Pregledano 1932 puta
Pregledano 2080 puta
Pregledano 5728 puta
Trebaš ritam za ovu pjesmu? Pronađi ga ovdje
Akordi/Tabovi:
Intro
E|---------|---||
B|---------|---||
G|---------|---||
D|-7-------|-7-||
A|-5-7-(x4)|-5-||
E|---5-----|---||

Verse
E|-----------||
B|-----------||
G|-----------||
D|-7---------||
A|-5-7-9-5-7-||
E|---5-7-3-5-||

Pre-Chorus
E|---------|---------||
B|---------|---------||
G|---------|---------||
D|-7-------|---------||
A|-5-9-(x2)|-5-7-(x2)||
E|---7-----|-3-5-----||

Chorus
E|---------||
B|---------||
G|---------||
D|-7-------||
A|-5-9-5-7-||
E|---7-3-5-||

Break-Off    |Ending
E|-----------|---------||
B|-----------|---------||
G|-----------|---------||
D|-7-6-------|---7---7-||
A|-5-4-9-7-5-|-7-5-7-5-||
E|-----7-5-3-|-5---5---||


Drumsticks...
Intro
Verse x2
Pre-Chorus
Chorus
Verse x2
Pre-Chorus
Chorus
Break-Off w/Ending
Chorus x2
Break-Off
Komentari
Još nema komentara