Poison

Were An American Band

by: Guitar360

Pronađi akord!

Ne znaš kako odsvirati neki od akorda pjesmi Were An American Band? Upiši akord u tražilicu i saznaj!

Traženi akord će se prikazati ovdje

Od istog izvođača

Pregledano 1794 puta
Pregledano 1724 puta
Pregledano 1733 puta
Pregledano 2028 puta
Pregledano 2125 puta
Trebaš ritam za ovu pjesmu? Pronađi ga ovdje
Were An American Band

Begining
e|--------------------------------------------------------------------------|
B|--------------------------------------------8-----------8-----------------|
G|--5h7---5-777-5-777-5-777-5-777-5-777--7b9----r7-5-7b9----r7-5-5-------5-5|
D|--5h7---5-777-5-777-5-777-5-777-5-777----------------------------7-5-7----|
A|--------------------------------------------------------------------------|
E|--------------------------------------------------------------------------|

e|--------10-10-10-10-10-10-10-10-8|
B|---------------------------------|
G|--------7--7--7--7--7--7--7--7--5|
D|7-5-7----------------------------|
A|---------------------------------|
E|---------------------------------|

Verse
e|--------------------------------------------------------------------------|
B|--------------------------------------------------------------------------|
G|------------------------------10-9----------------------------------------|
D|-12-12---12-12--10-10-10--12--10-9-10-------------------------------------|
A|-12-12---12-12--10-10-10--12--8--7-10-------------------------------------|
E|-10-10---10-10--8--8--8---10-------8--------------------------------------|


Pre Chorus
e|----------------------------|
B|----------------------------|
G|-12-----------12------10-12-|
D|-12-12-10-12--12-12---10-12-|
A|-10-12-10-12--10-12---8--10-|
E|----10-8--10-----10---------|

Chorus
e|--------------------------------------------------------------------------|
B|--------------------------------------------------------------------------|
G|--------------------------------------------------------------------------|
D|-12-10---8-10-12----------------------------------------------------------|
A|-12-10---8-10-12----------------------------------------------------------|
E|-10-8----6-8--10----------------------------------------------------------|

C.C.'s fill over second chorus
e|-8b10-10-10r8-5-8b10r8-5---|
B|---------------------------|
G|-------------------------7-|
D|---------------------------|
A|---------------------------|
E|---------------------------|

Solo (play this part alot really fast)
e|----------------11-12-11-12-11-12-11-12b14---10-10-13p12p10h13p12p10------|
B|/8-7-8-7------------------------------------------------------------------|
G|---------7----------------------------------------------------------------|
D|-----------7--------------------------------------------------------------|
A|-------------5------------------------------------------------------------|
E|--------------------------------------------------------------------------|

e|-10-10p8------10-10p8------10---------------------------------------------|
B|--------h10p8--------h10p8------------------------------------------------|
G|--------------------------------------------------------------------------|
D|--------------------------------------------------------------------------|
A|--------------------------------------------------------------------------|
E|--------------------------------------------------------------------------|
Komentari
Još nema komentara