Poison

Until You Suffer Some (Fire and Ice)

by: Guitar360

Pronađi akord!

Ne znaš kako odsvirati neki od akorda pjesmi Until You Suffer Some (Fire and Ice)? Upiši akord u tražilicu i saznaj!

Traženi akord će se prikazati ovdje

Od istog izvođača

Pregledano 2028 puta
Pregledano 1733 puta
Pregledano 3591 puta
Pregledano 1724 puta
Pregledano 2198 puta
Trebaš ritam za ovu pjesmu? Pronađi ga ovdje
Akordi/Tabovi:
Until You Suffer Some (Fire and Ice)



-----------------------------------|---------------------12-12-|--------------|
-----------------------------------|---------------------12-12-|--------------|
-9--9---9----------9---9-----------|----7--7--9--9---9-x-------|-9--9---9-----|
-9--9---9-------9h-11--9-----------|----7--7--9--9---9-x-------|-9--9---9-----|
-9h-11-----9h11-----------11p9\7---|-7h-9--7--9h-11------------|-9h-11--------|
-0--0------0--0------------------9-|----------0--0-------------|-0--0---------|
Verse Riff--Clean Tone

-------------------------|-------------------------------------|--------------|
-------------------------|-----------------9-12----------------|--------------|
---------9---9-----------|----7--7--------------11-9-----------|--------------|
------9h-11--9-----------|----7--7-------------------11-9------|--------------|
-9h11-----------11p9\7---|-7h-9--7--7h9-7-----------------11-9-|--------------|
-----------------------9-|-------------------------------------|--------------|


-------|-------|-------|-------|--------------------|-------------------------|
-------|-------|-------|-------|--------------------|-------------------------|
-------|-4-----|-9-----|-2-----|--------------9-9-v-|-11^11p9-11-v--9h11-11^--|
-2-----|-4-----|-9-----|-2---4-|-9h11-v--9h11-------|-------------------------|
-2-----|-2-----|-7-----|-0---4-|--------------------|-------------------------|
-0-----|-------|-------|---4-2-|--------------------|-------------------------|
Chorus Riff--Distorted Tone     Solo--Distorted Tone

------|----------------------------------12----|-14^-^14p12-14-v--------9--|--|
------|-------------------------12-12/14----12-|----------------------9---9|--|
-9-11-|-9h11-8------------9-11^----------------|------------------11^------|--|
------|--------9-------11----------------------|---------------------------|--|
------|----------11/12-------------------------|---------------------------|--|
------|----------------------------------------|---------------------------|--|


--------------------------------|----------------------------------------|----|
-12^-^--------------------------|-12-10-9-9---------------------------12-|----|
---------------9h11--11p9----9\-|------------11-9-11^-9-11-v--9h11/13----|----|
-------------9------------11----|----------------------------------------|----|
--------9h11--------------------|----------------------------------------|----|
--------------------------------|----------------------------------------|----|


----12h14p12-------------------------------------------|----------------------|
-14----------14p12-------------------------------------|----------------------|
-------------------13p11\9h11h12p11p9---------9--------|-11^--11^11p9-11-v\---|
--------------------------------------11p9-------------|----------------------|
-------------------------------------------11---11-9^\-|----------------------|
-------------------------------------------------------|----------------------|


--------12----|-14^---14^14p12-14vvvvvv-|---------------|-------------|-------|
-----12----12-|-------------------------|---------------|-------------|-------|
-/13----------|-------------------------|-4---8--9--11--|-2---9--8--4-|-------|
--------------|-------------------------|-4-------------|-2-----------|-------|
--------------|-------------------------|-2---6--7--9---|-0---7--6--2-|-------|
--------------|-------------------------|---------------|-------------|-------|
                              End Solo    Bridge Riff--Distorted Tone

--------------|-------------|-------------------------------------------------|
--------------|-------------|-------------------------------------------------|
-4---8--9--11-|-13\---------|-------------------------------------------------|
-4------------|-------------|-------------------------------------------------|
-2---6--7--9--|-11\---------|-------------------------------------------------|
--------------|-------------|-------------------------------------------------|

Here are the main parts of the song.  The format is as follows:

Intro (Verse Riff)
First Verse
Second Verse
Chorus
Third Verse
Chorus
Guitar Solo
Bridge
Chorus
End by Playing the Verse Riff One Last Time
Komentari
Još nema komentara