Paul Gilbert

Jig

by: Guitar360

Pronađi akord!

Ne znaš kako odsvirati neki od akorda pjesmi Jig? Upiši akord u tražilicu i saznaj!

Traženi akord će se prikazati ovdje

Od istog izvođača

Pregledano 1762 puta
Pregledano 1762 puta
Pregledano 1711 puta
Pregledano 1778 puta
Pregledano 1974 puta
Trebaš ritam za ovu pjesmu? Pronađi ga ovdje
Akordi/Tabovi:
Tuning: E Standard

Esentially, this tune is made up of two repeated parts. An 'A' section and a 'B' section.

The order is as follows:

A,A,B,A,B-variation

I have not transcribed the Guitar 2 part.

Happy Shredding!

A Section
*     *     * * *
e|---5^-5-5-7-8-7---7---------0-5---7-5-4-5-7-0-12-10-8-10-12----13-12-10-12-|
B|-5--------------3---5-6-3-1-----3---------------------------10-------------|
G|---------------------------------------------------------------------------|
D|---------------------------------------------------------------------------|
A|---------------------------------------------------------------------------|
E|---------------------------------------------------------------------------|

* *   *
e|-13----15-13-12-13-15-15h17p15p13-15-17-------------------15-17------------|
B|----12-------------------------------------------15-17-18------------------|
G|----------------------------------------14-16-17---------------------------|
D|---------------------------------------------------------------------------|
A|---------------------------------------------------------------------------|
E|---------------------------------------------------------------------------|

     *        *
e|-17h19p17p15-17-19-------------------17-19-19h20p19p17-19-20----------13---|
B|----------------------------17-18-20-------------------------13-15-17------|
G|-------------------16-17-19------------------------------------------------|
D|---------------------------------------------------------------------------|
A|---------------------------------------------------------------------------|
E|---------------------------------------------------------------------------|

*    *     *
e|-15-17----------12-13-15-------------------15-17---------------------------|
B|-------12-13-15-------------------15-17-18-------15-17-18-12-13-15---------|
G|-------------------------14-16-17----------------------------------12-14---|
D|---------------------------------------------------------------------------|
A|---------------------------------------------------------------------------|
E|---------------------------------------------------------------------------|

  *         *
e|----------------------------------------------------------15^-15p12--------|
B|-12-13^-13-12-13-15^-15-----------------------12-15-12-15-----------13-----|
G|------------------------9-10----9~-9-12-13-12--------------------------15--|
D|-----------------------------12--------------------------------------------|
A|---------------------------------------------------------------------------|
E|---------------------------------------------------------------------------|

     *       *        *       sweep
e|--------------13p10-------------------12p8-----------10-7--------------8^---|
B|-----------10-------12-10-----------8------10-8-----------8-6--------8--|-7-|
G|-14-12-14~----------------12-10-12~-------------10-9----------9-7--9----|---|
D|----------------------------------------------------------------------------|
A|----------------------------------------------------------------------------|
E|----------------------------------------------------------------------------|

*     *     *       *
e|-10-8-7-8-7------12-13-15---------8-10-12----------12-13-15---------8-10---|
B|------------8-15----------8-10-12---------12-13-15----------8-10-12--------|
G|---------------------------------------------------------------------------|
D|---------------------------------------------------------------------------|
A|---------------------------------------------------------------------------|
E|---------------------------------------------------------------------------|

      *
e|-12----------12-13-15-12---------------------------------------------------|
B|----12-13-15-------------15-13-13------------------------------------------|
G|----------------------------------12---------------------------------------|
D|-------------------------------------14------------------------------------|
A|----------------------------------------15---------------------------------|
E|---------------------------------------------------------------------------|

B Section

   *   * * 2nd time    *
e|---8^-8-8-10-12-10---10----------8----|---|-------------------------------------|
B|-8-----------------6----8h10-6-5---5--|---|----------------------10-12-13----13-|
G|-------------------------------------7|h9-|-5-4-5-7------9-11-12----------------|
G|--------------------------------------|---|---------5-12------------------13----|
D|--------------------------------------|---|-------------------------------------|
A|--------------------------------------|---|-------------------------------------|
E|--------------------------------------|---|-------------------------------------|

      *      *   *
e|---------------------------------------------------------------------------|
B|-12-------8-10-12---12-10~-------6-8-10---10-8~---8-7~---7-5-4-5-4-5-7-----|
G|----7-9-11-----------------5-7-9---------------------------------------4---|
D|------------------11--------------------9-------7------5-------------------|
A|---------------------------------------------------------------------------|
E|---------------------------------------------------------------------------|

   *        *    * *   *
e|-7-5-3-5-7---8-7-5-7-8---10-8-7-8-10---12-10-9-11-12----14-12-11-12-14-----|
B|-----------5-----------7-------------8---------------10--------------------|
G|---------------------------------------------------------------------------|
D|---------------------------------------------------------------------------|
A|---------------------------------------------------------------------------|
E|---------------------------------------------------------------------------|

   *      *       *
e|-14h15p14p12-14-15------------------14-15-15h17p15p14-15-17----------------|
B|---------------------------14-16-17----------------------------------16-17-|
G|------------------12-14-16----------------------------------14-16-18-------|
D|---------------------------------------------------------------------------|
A|---------------------------------------------------------------------------|
E|---------------------------------------------------------------------------|

      * *   *
e|----15-17-17h19p17p15-17-19----------14-15-17----------12-14-15-17-19------|
B|-19-------------------------14-16-17----------12-14-16---------------------|
G|----------------------------------------------------------------------16---|
D|---------------------------------------------------------------------------|
A|---------------------------------------------------------------------------|
E|---------------------------------------------------------------------------|

    *       *
e|----------12p9------------------------------10p7---------------------------|
B|-17-16-17------10------------------10----10------8---------------8---8-----|
G|------------------12-10-9-10----10----10-----------10-9-7-9----9---9-------|
D|-----------------------------12-----------------------------10-------------|
A|---------------------------------------------------------------------------|
E|---------------------------------------------------------------------------|

   * *      sweep          *      * *
e|-8-5----------7-3-------------5^---7-5-4-5-7-------8-10-12-------5-7-8-----|
B|------6-5---------5-3-------5--|-------------5~-12---------3-5-7-------9---|
G|----------7-5---------5-4-5----|-7-----------------------------------------|
D|---------------------------------------------------------------------------|
A|---------------------------------------------------------------------------|
E|---------------------------------------------------------------------------|

*      *
e|-------8-10-12-------5-7-8---------8-10-12p8-------------------------------|
B|-10-12---------3-5-7-------9-10-12-----------10^-10------------------------|
G|----------------------------------------------------9----------------------|
D|------------------------------------------------------10-------------------|
A|---------------------------------------------------------12\---------------|
E|---------------------------------------------------------------------------|


| *  finger position change (above tab)
| /  slide up
| \  slide down
| h  hammer-on
| p  pull-off
| ~  vibrato
| +  harmonic
| ^  staccato
| x  Mute note
Komentari
Još nema komentara