Paul Gilbert

Rusty Old Boat

by: Guitar360

Pronađi akord!

Ne znaš kako odsvirati neki od akorda pjesmi Rusty Old Boat? Upiši akord u tražilicu i saznaj!

Traženi akord će se prikazati ovdje

Od istog izvođača

Pregledano 2048 puta
Pregledano 1843 puta
Jig
Pregledano 1728 puta
Pregledano 1709 puta
Pregledano 1815 puta
Trebaš ritam za ovu pjesmu? Pronađi ga ovdje
Akordi/Tabovi:
e|---------------------------------------------------------------------------|
B|---------------------------------------------------------------------------|
G|---------------------------------------------------------------------------|
D|------7/9--7--5--7--5------------------------------------------------------|
A|-----------------------7~------------2h5---5-5/7--3------3-3/5-------------|
E|---------------------------0h2h3h4h5-----------------(5)-------------------|

e|---------------------------------------------------------------------------|
B|---------------------------------------------------------------------------|
G|---------------------------------------------------------------------------|
D|------7/9--7--5--7--5------------------------------------------------------|
A|-----------------------7~------------2h5--5-5-5-5-5-5-5—2/4----------------|
E|---------------------------0h2h3h4h5---------------------------------------|
                                       P.M. * * * * * * *

e|---------------------------------------------------------------------------|
B|---------------------------------------------------------------------------|
G|---------------------------------------------------------------------------|
D|------7/9--7--5--7--5------------------------------------------------------|
A|-----------------------7~------------2h5---5-5/7--3------3-3/5-------------|
E|---------------------------0h2h3h4h5-----------------(5)-------------------|


e|---------------------------------------------------------------------------|
B|---------------------------------------------------------------------------|
G|-----------------0---------------------------------------------------------|
D|----2p0----------0---------------------------------------------------------|
A|--------2p0------0---------------------------------------------------------|
E|------------2p0--3---------------------------------------------------------|
              P.M. *
Komentari
Još nema komentara