Paul Gilbert

Interaction

by: Guitar360

Pronađi akord!

Ne znaš kako odsvirati neki od akorda pjesmi Interaction? Upiši akord u tražilicu i saznaj!

Traženi akord će se prikazati ovdje

Od istog izvođača

Pregledano 1775 puta
Pregledano 1755 puta
Jig
Pregledano 1728 puta
Pregledano 1915 puta
Pregledano 1844 puta
Trebaš ritam za ovu pjesmu? Pronađi ga ovdje
Akordi/Tabovi:
Rhythm Guitar 1st and 3rd time?
e|--------------------------------------------------------|
b|---------------------------7---5------------------------|
g|-4-0-----0-----------------7---5------------------------|
d|-----2-4-------------------7---5------------------------|
a|-----------2-------0-------5---3------------------------|
E|-------------0-2-3---3-2-0------------------------------|

Lead Guitar (w/ Wah)
e|----------------------------------------------------------------|
b|-------------------------------------------------------~~~------|
g|--------------------------------------12-12-11-9-11--11b12------|
d|----------------------------------------------------------------|
a|----------------------------------------------------------------|
E|----------------------------------------------------------------|

Rhythm 2nd and 4th time
e|----------------------------------0------------------------------|
b|----------------------------------0--Email me for mistakes-------|
g|-5-0------0-----------------------9-----Dbielik90@gmail.com------|
d|-----2-4--------------------------9------------------------------|
a|------------3-------0-----3-5-----7------------------------------|
E|--------------0-2 3 --3 2 ---------------------------------------|

Lead Guitar (w/ Wah)
e|----------------------------------------------------------------|
b|-------------------------------------------------------~~~------|
g|--------------------------------------12-12-11-9-11--11b12------|
d|----------------------------------------------------------------|
a|----------------------------------------------------------------|
E|----------------------------------------------------------------|

---------------------------------------------------------------------

Rhythm Guitar
e|-0-0-------------0---------------------------------------------|
b|-0-0-------------0---------------------------------------------|
g|-9-9-----------7-9\--------------------------------------------|
d|-9-9-----------7-9\--------------------------------------------|
a|-7-7-----etc.--5-7\-------etc.---------------------------------|
E|-0-0-------------0---------------------------------------------|

Lead Guitar (w/ Wah)                                                      ~~
e|-------~~----------------~~~-------------------------------7-8-10-10-|b
b|-------~~-------~~~---10-10b12-----------------------7-8-10----------|
g|---7--7b9--11-11b12------------------------------7-9-----------------|
d|-------------------------------------------7-9-10--------------------|
a|-------------------------------------7-9-10--------------------------|
E|-------------------------------7-8-10--------------------------------|
Komentari
Još nema komentara