Vjestice

Ljubav Se Ne Trži

by: Guitar360

Pronađi akord!

Ne znaš kako odsvirati neki od akorda pjesmi Ljubav Se Ne Trži? Upiši akord u tražilicu i saznaj!

Traženi akord će se prikazati ovdje

Od istog izvođača

Pregledano 7777 puta
Pregledano 22972 puta
Pregledano 26337 puta
Trebaš ritam za ovu pjesmu? Pronađi ga ovdje
Akordi/Tabovi:
Vještice - Ljubav se ne trži
   
   Dm                        A   (A7)
   Ljubav se ne trži niti ne kupuje,
   Dm                          F G
   ljubav se ne trži niti ne kupuje.
   Dm                 C
   Ko ljubiti ne zna, ko ljubiti ne zna
   F             A Dm
   saj nek se ne hapljuje.

   Ko ljubiti ne zna, ko ljubiti ne zna
   saj nek se ne hapljuje.

   Če se najde ljubav istinska il prava,
   Če se najde ljubav istinska il prava,
   srca ju ne spere, srca ju ne spere,
   Mura niti Drava.

   Ljubav ne raspari žbiri ni žandari
   Ljubav ne raspari žbiri ni žandari
   Zbiri ni zandari, žbiri ni žandari
   Niti puglavari

   Ljubav se ne trži...


dio koji se stalno ponavlja kao solo i uz glas:
  Dm     A (A7)    Dm F   G
-------------------1--0-----------------------------1--0--------------
--3-2-3-2-3-----3--------3---------3-2-3-2-3-----3--------3--1--------
--2---------2---2-----------2--2---2---------2---2--------------2---0-
--0-------------0-----------2------0-------------0--------------3---0-
----------------------------0-----------------------------------3-----
----------------------------------------------------------------------

Dm            C      F       A7 Dm
---------------0-------------------------------
-----------3---1-3-1---------1-----------------
-------0-2-----------3-2--0--2--2-2--0---------
-0-2-3-----------------------3-------2--0--0---
-0-----------------------------------0--0--0---
----------------------------------------------


Dm  XX0231
A   XO2220
A7  X02020
F   133211
G   355433
C   X32010
Komentari
Još nema komentara